PrimaNota.ru - самый крупный в мире бесплатный архив песенных текстов, аккордов, табулатур и нот


Dead Letter Circus - Alien - текст песни, таба, видео

Регистрация Запомнить меня
Войти через:  Facebook Google Twitter Vk Yandex Mail.ru

Dead Letter Circus - Alien - текст песни, таба, видео

Печатать
Просмотров: 128
----------------------------------------------------------------
                  Alien - Dead Letter Circus
----------------------------------------------------------------

http://www.myspace.com/deadlettercircus

Tabbed by: Kristyn Lee
Email: spot_the_village_loony_836@hotmail.com

Tuning: Drop D

Intro is a bit longer than this, listen to song.

Intro    Guitar 1
e|----------11---------11---------11---------11------|
B|----9---9------9---9------9---9------9---9---------|
G|--9---9------9---9------9---9------9---9-----------|
D|---------------------------------------------------|
A|---------------------------------------------------|
D|---------------------------------------------------|
Intro    Guitar 2                                    | 
e|---------------------------------------------------|
B|---------------------------------------------------|
G|--9---9---9---9---8--------------------------------|
D|----------------------9---9---9--------------------|
A|---------------------------------------------------|
D|----------------------------------6---6---6--------|


Chorus     Both Guitars
e|-----------------------------------------------------------------|
B|-9-99-9-99-999/1212-1212-1212-121212/999/17171717\16\12/14\9\12--|
G|-x-xx-x-xx-xxx-x-x--x-x--x-x--x-x-x--xxx-x-x-x-x--x--x-x---x-x---|
D|-6-66-6-66-666/9-9--9-9--9-9--9-9-9-/666/14141414\13\9-/11\6/9---|
A|-----------------------------------------------------------------|
E|-----------------------------------------------------------------|
     
e|--------------------------------------------------|
B|-\777/99--999999/-12121212121212\-9/-14~----------|
G|--xxx-xx--xxxxxx--x-x-x-x-x-x-x---x--x------------|
D|-\444/66--666666/-9-9-9-9-9-9-9-\-6/-11~----------|
A|--------------------------------------------------|
E|--------------------------------------------------|

Verse    both guitars
e|-------------7--------------------7---------------|
B|----9----9------10---9----9---9-----10-9----------|
G|--6---6----6------------6---6---6-----------------|
D|--------------------------------------------------|
A|--------------------------------------------------|
D|--------------------------------------------------|

e|--------------------------------------------------|
B|----9---9----9-7-6----9---9----9-7-6--------------|
G|--6---6---6----------6---6---6--------------------|
D|--------------------------------------------------|
A|--------------------------------------------------|
D|--------------------------------------------------|

Repeat Chorus 

Repeat Verse

2:58
e|-----------------------------------------------------|
B|--99999999999--66666666666--9999999999--6666666666---|
G|--66666666666--33333333333--6666666666--3333333333---|
D|-----------------------------------------------------|
A|-----------------------------------------------------|
D|-----------------------------------------------------|

Repeat Chorus

3:58  Bridge
Guitar 1
e|------------------------------------------------------|
B|------------------------------------------------------|
G|--9-9-9-9-9-9-8-8-------------------------------------|
D|------------------9-9-9-9-----------------------------|
A|------------------------------------------------------|
D|---------------------------6-6-6-6--------------------|
Guitar 2
e|------------------------------------------------------|
B|----17----17----17----17----16----16----16----16------|
G|------------------------------------------------------|
D|-14----14----14----14----13----13----13----13---------|
A|------------------------------------------------------|
D|------------------------------------------------------|

They play this a few times. sorta, think its different. it's hard to hear
e|--------------------------------------------------------|
B|--16p14---14---16p14----16-16---------------------------|
G|--------13-----------13---------------------------------|
D|--------------------------------------------------------|
A|--------------------------------------------------------|
D|--------------------------------------------------------|



| /  slide up
| \  slide down
| h  hammer-on
| p  pull-off
| ~  vibrato
| +  harmonic
| x  Mute note
==================================================================
Добавлено: 26.04.2012
Другие материалы по этой песне:
  • Аккорды и текст

Страница создана 26.04.2012
http://primanota.ru/dead-letter-circus/alien-chords.htm
Привет, Гость.
Предлагаем пройти революционный курс по гитаре.
Подарок от PrimaNota.Ru, забирай!