PrimaNota.ru - самый крупный в мире бесплатный архив песенных текстов, аккордов, табулатур и нот


Dead Kennedys - Too Drunk Too Fuck - бас-таба, видео

Регистрация Запомнить меня
Войти через:  Facebook Google Twitter Vk Yandex Mail.ru

Dead Kennedys - Too Drunk Too Fuck - бас-таба, видео

Печатать
Просмотров: 111
			     To Drunk Too Fuck- Dead Kennedys
Tabbed By : UnionBassist
e-mail: cbattler26@yahoo.com
I transcriped this tab from bassmasta.net so i give full credit to them but i though 
people would see it on UG. any errors contact me at the above email. Enjoy
Tuning:EADG (Standard Tuning)
Intro                              4x then
G|-----------|------------------------------|------------------|
D|-----------|------------------------------|------------------|
A|-----------|---3--5-6-5--3------3-5--3-5-3|------------------|
E|--5---0-3-4|5--------------5-5------------|-33333333-22222222|
                  4x then
G|-----------------------:|-----------------|
D|-----------------------:|-----------------|
A|----3--5-6-5--3-----3-5:|-----------------|
E|-5--------------5-5----:|33333333-22222222|
                          x5 but gradually gets faster.
G|----------------------|--------|--------------------|
D|----------------------|--------|--------------------|
A|---3--5-6-5--3-----3-5|--------|----------------3333|
E|-5-------------5-5----|-33-3-0-|-0000-1111-3333-----|
                   4x then
G|-----------------------:|------------------|
D|-----------------------:|------------------|
A|---3--5-6-5--3-----3-5-:|------------------|
E|-5-------------5-5-----:|-33333333-22222222|

                        x5 but gradually gets faster.
G|----------------------|--------|--------------------|
D|----------------------|--------|--------------------|
A|---3--5-6-5--3-----3-5|--------|----------------3333|
E|-5-------------5-5----|-33-3-0-|-0000-1111-3333-----|
solo     x12
G|----------|------------------------------------:|:--------|
D|----------|------------------------------------:|:--------|
A|-3333--6-5|------------------------------------:|:3--3-6-5|
E|----------|-5-5555-3-3-5-3-5-5555-3-5-3-5-55555:|:--------|

G|---------------------------------------------|
D|---------------------------------------------|
A|----------------------------------6-5--3--5--|
E|-5-5555-3-5-3-5-5555-3-5-3-5-5555--------5-5-|

                        x5 but gradually gets faster.
G|----------------------|--------|--------------------|
D|----------------------|--------|--------------------|
A|---3--5-6-5--3-----3-5|--------|----------------3333|
E|-5-------------5-5----|-33-3-0-|-0000-1111-3333-----|


                        x2 then
G|-----------------------------|-------------------------------|
D|-----------------------------|-------------------------------|
A|---3--5-6-5--3-----3-5--3-5-3|---5--7-8-7--5-----5-7--5-7-5--|
E|-5-------------5-5-----------|-7-------------7-7-------------|

G|-------------------------------------------------------------|
D|-------------------------------------------------------------|
A|-------------------------------------------------------------|
E|-55555555-33333333-------------------------------------------|

                       x4                      x5 but gradually gets faster.
G|-------------------------|------------------|-------|--------------------|
D|-------------------------|------------------|-------|--------------------|
A|---5--7-8-7--5-----5-7-5-|------------------|-------|----------------5555|
E|-7-------------7-7-------|-55555555-33333333|-55-5-2|-2222-3333-5555-----|


G|---------------------------------|
D|-------------3-3-----------------|
A|-555-333-555--5------------------|
E|----------------|  End with A|-5-|



| /  slide up
| \  slide down
| h  hammer-on
| p  pull-off
| ~  vibrato
| +  harmonic
| x  Mute note
===============================================================================
Добавлено: 02.04.2012
Другие материалы по этой песне:
  • Аккорды и текст

Страница создана 02.04.2012
http://primanota.ru/dead-kennedys/too-drunk-too-fuck-chords.htm
Привет, Гость.
Предлагаем пройти революционный курс по гитаре.
Подарок от PrimaNota.Ru, забирай!