PrimaNota.ru - самый крупный в мире бесплатный архив песенных текстов, аккордов, табулатур и нот


Dead Kennedys - Terminal Preppy - таба, видео

Регистрация Запомнить меня
Войти через:  Facebook Google Twitter Vk Yandex Mail.ru

Dead Kennedys - Terminal Preppy - таба, видео

Печатать
Просмотров: 106
Intro:                Part one: 
|------------|        |------------------------------------------|
|------------|        |------------------------------------------|
|------------|        |------------------------------------------|
|-10-10-10-10|        |-5-5-8-8-10-10-10-10--5-5-8-8-10-10-10-10-|
|-10-10-10-10|        |-5-5-8-8-10-10-10-10--5-5-8-8-10-10-10-10-|
|-08-08-08-08|        |-3-3-6-6-08-08-08-08--3-3-6-6-08-08-08-08-|

Part Two: x's 2
|--------------------------------------------|
|--------------------------------------------|
|--------------------------------------------|
|-5-5-8-8-10-10-10-10-12-12-12-12-10-10-10-10|
|-5-5-8-8-10-10-10-10-12-12-12-12-10-10-10-10|
|-3-3-6-6-08-08-08-08-10-10-10-10-08-08-08-08|

Part Three:
|-----------------------------------------------------------------------------------------------------|
|-----------------------------------------------------------------------------------------------------|
|-----------------------------------------------------------------------------------------------------|
|-5-5-8-8-5-5-8-8-5-5-8-8-10-10-8-8--5-5-8-8-5-5-8-8-5-5-3-3-3-3-3-3-5-5-8-8-5-5-8-8-5-5-8-8-10-10-8-8|
|-5-5-8-8-5-5-8-8-5-5-8-8-10-10-8-8--5-5-8-8-5-5-8-8-5-5-3-3-3-3-3-3-5-5-8-8-5-5-8-8-5-5-8-8-10-10-8-8|
|-3-3-6-6-3-3-6-6-3-3-6-6-08-08-6-6--5-5-8-8-5-5-8-8-5-5-1-1-1-1-1-1-3-3-6-6-3-3-6-6-3-3-6-6-08-08-6-6|

Part Three Cont'd:
|------------------|
|------------------|
|------------------|
|-12-12-10-8-10-8-5|
|-12-12-10-8-10-8-5|
|-09-09-08-6-08-6-3|

Part Four:
|-----------9-9-9-8-9-----------9-9-9-8-9-----------9-9-9-8-9------------|
|------------------------------------------------------------------------|
|------------------------------------------------------------------------|
|-5-5-5-5-5-----------3-3-3-3-3-----------5-5-5-5-5-----------3-3-3-3-5-5|
|-5-5-5-5-5-----------3-3-3-3-3-----------5-5-5-5-5-----------3-3-3-3-5-5|
|-3-3-3-3-3-----------1-1-1-1-1-----------3-3-3-3-3-----------1-1-1-1-3-3|

Part 1, Part 2, Part 3, Part 4

Part Five: x's 4
|-----------------|
|-----------------|
|-----------------|
|-8-5-5-5-8-5-5-5-|
|-8-5-5-5-8-5-5-5-|
|-6-3-3-3-6-3-3-3-|

Part 6: x's 2
|----------------|
|----------------|
|-------------5-5|
|-5-5-3-3-5-5-5-5|
|-5-5-3-3-5-5-3-3|
|-3-3-1-1-3-3----|

Part Seven:
|--------------------------------|
|--------------------------------|
|--------------------------------|
|-5-5-3-3-5-5-3-3-5-5-3-3-5-5-3-3|
|-5-5-3-3-5-5-3-3-5-5-3-3-5-5-3-3|
|-3-3-1-1-3-3-1-1-3-3-1-1-3-3-1-1|

Part 4

Part Eight:
|-----------11-11-11-10-11-----------11-11-11-10-11-----------11-11-11-10-11-------------|
|----------------------------------------------------------------------------------------|
|----------------------------------------------------------------------------------------|
|-7-7-7-7-7----------------5-5-5-5-5----------------7-7-7-7-7----------------5-5-5-5-7-7-|
|-7-7-7-7-7----------------5-5-5-5-5----------------7-7-7-7-7----------------5-5-5-5-7-7-|
|-5-5-5-5-5----------------3-3-3-3-3----------------5-5-5-5-5----------------3-3-3-3-5-5-|

Solo:
|-----------------------------|
|--------------------------8--|
|------7-9-7-----------7-9---9|
|-7-10-------10-7-7-10--------|
|-----------------------------|
|-----------------------------|

Part 9: x's 2
|----------------|
|----------------|
|-------------7-7|
|-7-7-5-5-7-7-7-7|
|-7-7-5-5-7-7-5-5|
|-5-5-3-3-5-5----|

Outro:
|-------------------|
|-------------------|
|-------------------|
|-7-10-12-13-12-10-7|
|-7-10-12-13-12-10-7|
|-5-08-10-11-10-08-5|
Добавлено: 12.06.2012
Другие материалы по этой песне:
  • Аккорды и текст

Страница создана 12.06.2012
http://primanota.ru/dead-kennedys/terminal-preppy-chords.htm
Привет, Гость.
Предлагаем пройти революционный курс по гитаре.
Подарок от PrimaNota.Ru, забирай!