PrimaNota.ru - самый крупный в мире бесплатный архив песенных текстов, аккордов, табулатур и нот


Dead Kennedys - Terminal Preppie - текст песни, бас-таба, видео

Регистрация Запомнить меня
Войти через:  Facebook Google Twitter Vk Yandex Mail.ru

Dead Kennedys - Terminal Preppie - текст песни, бас-таба, видео

Печатать
Просмотров: 156
Уроки эстрадного вокала в Санкт-Петербурге
Авторы музыки: Jello Biafra, Klaus Flouride, Darren Henley, East Bay Ray
Авторы текста: Jello Biafra
Dead Kennedys -  Terminal Preppie

intro

G|--------------------------|
D|--------------------------|
A|-11-33-11-33-11-33-55--33-|
E|3-----------3-------------|

verse
G|--------------------------------------------------|
D|--------------------------------------------------|
A|-1-1-1-33-1-1-------1-1-1-33-55-11-33-------------|
E|3-3-3----3-3-3-111-3-3-3--------------3-----------|

With trumpet part
G|--------------------------|
D|--------------------------|
A|------33313-------33313---|
E|33333-------33333---------|

p-chorus
G|-----------------------|
D|-----------------------|
A|1---1---1---1----------|
E|-333-333-333-333-------|

chorus
G|--------------------|
D|--------------------|
A|---------33---------|
E|33-11-33------------|
Добавлено: 21.07.2012
Другие материалы по этой песне:
  • Аккорды и текст

Страница создана 22.03.2012
http://primanota.ru/dead-kennedys/terminal-preppie-chords.htm
Привет, Гость.
Предлагаем пройти революционный курс по гитаре.
Подарок от PrimaNota.Ru, забирай!