PrimaNota.ru - самый крупный в мире бесплатный архив песенных текстов, аккордов, табулатур и нот


Dead Kennedys - Stars And Stripes Of Corruption - текст песни, таба, видео

Регистрация Запомнить меня
Войти через:  Facebook Google Twitter Vk Yandex Mail.ru

Dead Kennedys - Stars And Stripes Of Corruption - текст песни, таба, видео

Печатать
Просмотров: 119
Авторы музыки: Dead Kennedys
Авторы текста: Jello Biafra
-------------------------------------------------------------------------------
Stars And Stripes Of Corruption - Dead Kennedys
Frankenchrist
-------------------------------------------------------------------------------
Tabbed by: axeslash
Email: holmzito@yahoo.com

Tuning: Standard

Guitar 1:
e|----------------------------------------------------------|
B|----------------------------------------------------------|
G|----------------------------------------------------------|
D|----------------------------------------------------------|
A|-0-0-0-0-0-0-0-0-0-0-0-0-0-0-0-0-0-0-0-0-0-0-0-0-0--------|
E|----------------------------------------------------------| x2

e|-17-17-17-17-17-17-17-17-18-18-18-18-18-18-18-18-15-15-15-15-15-15-15-15-|
B|-17-17-17-17-17-17-17-17-18-18-18-18-18-18-18-18-15-15-15-15-15-15-15-15-|
G|-------------------------------------------------------------------------|
D|-------------------------------------------------------------------------|
A|-------------------------------------------------------------------------|
E|-------------------------------------------------------------------------|

e|-17-17-17-17-17-17-17-17-17-17-17-17-17-17-17-17-18-18-18-18-18-18-18-18-|
B|-17-17-17-17-17-17-17-17-17-17-17-17-17-17-17-17-18-18-18-18-18-18-18-18-|
G|-------------------------------------------------------------------------|
D|-------------------------------------------------------------------------|
A|-------------------------------------------------------------------------|
E|-------------------------------------------------------------------------|

e|-15-15-15-15-15-15-15-15------------|  e|-----------------------------------------|
B|-15-15-15-15-15-15-15-15------------|  B|-----------------------------------------|
G|-------------------------14---------|  G|-12-12-12-12-12-12-12-12-9-9-9-9-9-9-9-9-|
D|-------------------------14---------|  D|-10-10-10-10-10-10-10-10-7-7-7-7-7-7-7-7-|
A|------------------------------------|  A|-----------------------------------------|
E|------------------------------------|  E|-----------------------------------------| x2

e|-----------------------------------------|  e|--------------------------|
B|-----------------------------------------|  B|--------------------------|
G|-7--7--8--8--9-9-9-9-9-9-9-9-7--7--8--8--|  G|-9--X-9--X-12-9--X-9--X-7-|
D|-5--5--6--6--7-7-7-7-7-7-7-7-5--5--6--6--|  D|-7--X-7--X-10-7--X-7--X-5-|
A|-----------------------------------------|  A|--------------------------|
E|-----------------------------------------|  E|--------------------------| x20

e|---------------------------------------------------------------------------------|
B|---------------------------------------------------------------------------------|
G|-12-12-12-12-12-12-12-12-9-9-9-9-9-9-9-9-12-12-12-12-12-12-12-12-----------------|
D|-10-10-10-10-10-10-10-10-7-7-7-7-7-7-7-7-10-10-10-10-10-10-10-10-9-9-9-9-9-9-9-9-|
A|-----------------------------------------------------------------7-7-7-7-7-7-7-7-|
E|---------------------------------------------------------------------------------|

e|-----------------------------------------|
B|-----------------------------------------|
G|-12-12-12-12-12-12-12-12-9-9-9-9-9-9-9-9-|
D|-10-10-10-10-10-10-10-10-7-7-7-7-7-7-7-7-|
A|-----------------------------------------|
E|-----------------------------------------|

e|---------------------------------------------------------|
B|---------------------------------------------------------|
G|-7--7--8--8--9-9-9-9-9-9-9-9-7--7--8--8--9-9-9-9-9-9-9-9-|
D|-5--5--6--6--7-7-7-7-7-7-7-7-5--5--6--6--7-7-7-7-7-7-7-7-|
A|---------------------------------------------------------|
E|---------------------------------------------------------|

e|-------------------------|     e|--------------------|
B|-10-10-10-12-12-12-12-12-|     B|-10-10-10-7-7-7-7-7-|
G|--7--7--7-10-10-10-10-10-|     G|--7--7--7-4-4-4-4-4-|
D|-------------------------|     D|--------------------|
A|-------------------------|     A|--------------------|
E|-------------------------| x3  E|--------------------|

e|-------------------------|     e|---------------------------------|
B|-10-10-10-12-12-12-12-12-|     B|---------------------------------|
G|--7--7--7-10-10-10-10-10-|     G|-7-7-7-7-7-7-7-7-9-9-9-9-9-9-9-9-|
D|-------------------------|     D|-5-5-5-5-5-5-5-5-7-7-7-7-7-7-7-7-|
A|-------------------------|     A|---------------------------------|
E|-------------------------| x3  E|---------------------------------|

e|------------------------------------------------------------------------|
B|------------------------------------------------------------------------|
G|-9--9--9----12-12-12-9--9--9----7-7-7-9--9--9----12-12-12-9--9--9----7--|
D|-7--7--7----10-10-10-7--7--7----5-5-5-7--7--7----10-10-10-7--7--7----5--|
A|------------------------------------------------------------------------|
E|------------------------------------------------------------------------|

e|--------------------------|
B|--------------------------|
G|-9--X-9--X-12-9--X-9--X-7-|
D|-7--X-7--X-10-7--X-7--X-5-|
A|--------------------------|
E|--------------------------| x20

e|---------------------------------------------------------------------------------|
B|---------------------------------------------------------------------------------|
G|-12-12-12-12-12-12-12-12-9-9-9-9-9-9-9-9-12-12-12-12-12-12-12-12-----------------|
D|-10-10-10-10-10-10-10-10-7-7-7-7-7-7-7-7-10-10-10-10-10-10-10-10-9-9-9-9-9-9-9-9-|
A|-----------------------------------------------------------------7-7-7-7-7-7-7-7-|
E|---------------------------------------------------------------------------------|

e|-----------------------------------------|
B|-----------------------------------------|
G|-12-12-12-12-12-12-12-12-9-9-9-9-9-9-9-9-|
D|-10-10-10-10-10-10-10-10-7-7-7-7-7-7-7-7-|
A|-----------------------------------------|
E|-----------------------------------------|

e|---------------------------------------------------------|
B|---------------------------------------------------------|
G|-7--7--8--8--9-9-9-9-9-9-9-9-7--7--8--8--9-9-9-9-9-9-9-9-|
D|-5--5--6--6--7-7-7-7-7-7-7-7-5--5--6--6--7-7-7-7-7-7-7-7-|
A|---------------------------------------------------------|
E|---------------------------------------------------------|

e|-------------------------|     e|--------------------|
B|-10-10-10-12-12-12-12-12-|     B|-10-10-10-7-7-7-7-7-|
G|--7--7--7-10-10-10-10-10-|     G|--7--7--7-4-4-4-4-4-|
D|-------------------------|     D|--------------------|
A|-------------------------|     A|--------------------|
E|-------------------------| x3  E|--------------------|

e|-------------------------|     e|---------------------------------|
B|-10-10-10-12-12-12-12-12-|     B|---------------------------------|
G|--7--7--7-10-10-10-10-10-|     G|-7-7-7-7-7-7-7-7-9-9-9-9-9-9-9-9-|
D|-------------------------|     D|-5-5-5-5-5-5-5-5-7-7-7-7-7-7-7-7-|
A|-------------------------|     A|---------------------------------|
E|-------------------------| x3  E|---------------------------------|

e|----------------------------------------------------|
B|----------------------------------------------------|
G|-9--9--9----9-9-9-9--9--9----9-9-9-9--9--9----9-9-9-|
D|-7--7--7----7-7-7-7--7--7----7-7-7-7--7--7----7-7-7-|
A|----------------------------------------------------|
E|----------------------------------------------------|

e|--------------------------------------------------------------------|
B|--------------------------------------------------------------------|
G|-9--9--9----9-9-9-9--9--9----9-9-9-21--21--21----21-21-21-21--------|
D|-7--7--7----7-7-7-7--7--7----7-7-7-19--19--19----19-19-19-19--------|
A|--------------------------------------------------------------------|
E|--------------------------------------------------------------------|

Tempo slows down right here

e|-------------------------------|
B|-------------------------------|
G|-9--9--9-9-9-12--9--9--9-9-9-7-|
D|-7--7--7-7-7-10--7--7--7-7-7-5-|
A|-------------------------------|
E|-------------------------------| x2

e|-------------------------------------------------------|
B|-------------------------------------------------------|
G|-9--9--9-9-9-12--9--9--7--7--4--4-4--7-7--4--4-4--7-7--|
D|-7--7--7-7-7-12--7--7--5--5--2--2-2--5-5--2--2-2--5-5--|
A|-------------------------------------------------------|
E|-------------------------------------------------------|

e|-------------------------------|
B|-------------------------------|
G|-9--9--9-9-9-12--9--9--9-9-9-7-|
D|-7--7--7-7-7-10--7--7--7-7-7-5-|
A|-------------------------------|
E|-------------------------------| x2

e|---------------------------------------------------------|
B|---------------------------------------------------------|
G|-9--9--9-9-9-12--9--9--7--7--4--4-4--7-7-7-4--4-4--7-7-7-|
D|-7--7--7-7-7-12--7--7--5--5--2--2-2--5-5-5-2--2-2--5-5-5-|
A|---------------------------------------------------------|
E|---------------------------------------------------------|

e|-------------------------------|
B|-------------------------------|
G|-9--9--9-9-9-12--9--9--9-9-9-7-|
D|-7--7--7-7-7-10--7--7--7-7-7-5-|
A|-------------------------------|
E|-------------------------------| x2

e|---------------------------------------------------------|
B|---------------------------------------------------------|
G|-9--9--9-9-9-12--9--9--7--7--4--4-4--7-7-7-4--4-4--7-7-7-|
D|-7--7--7-7-7-12--7--7--5--5--2--2-2--5-5-5-2--2-2--5-5-5-|
A|---------------------------------------------------------|
E|---------------------------------------------------------|

e|-------------------------------------------------------|
B|-------------------------------------------------------|
G|-9--9--7--7--4--4--7--7--9--9--9--9--7--7--4--4--7--7--|
D|-7--7--5--5--2--2--5--5--7--7--7--7--5--5--2--2--5--5--|
A|-------------------------------------------------------|
E|-------------------------------------------------------|

e|-----------------------------------------------------|
B|-----------------------------------------------------|
G|-9--9--7--7--9--9--7--7--4--4-4--7-7-7-4--4-4--7-7-7-|
D|-7--7--5--5--7--7--5--5--2--2-2--5-5-5-2--2-2--5-5-5-|
A|-----------------------------------------------------|
E|-----------------------------------------------------|

e|----------------------------|     |------------------------|
B|----------------------------|     |------------------------|
G|-9--9----9-12--9--9----9-7--|     |-9--9----9-12--9--------|
D|-7--7----7-10--7--7----7-5--|     |-7--7----7-10--7--------|
A|----------------------------|     |------------------------|
E|----------------------------| x4  |------------------------|

Tempo increases back to original tempo

e|-----------------|     e|--------------------|
B|-----------------|     B|--------------------|
G|-----------------|     G|------------8/10----|
D|-------5---------|     D|------5--7--7/-9----|
A|-7--7----7--7--5-|     A|-7--7------------7--|
E|[X--X--X-X--X--X]| x7  E|[X--X-X]------------|

e|-----------------|     e|-----------------------|
B|-----------------|     B|-----------------------|
G|-------5---------|     G|-------5h7---7^r-5~~~~-|
D|-7--7----7--7--5-|     D|-7-5h7-----------------|
A|-----------------|     A|-----------------------|
E|[X--X--X-X--X--X]| x3  E|[X]--------------------|

e|-----------------|     e|--------------------------|
B|-----------------|     B|--------------------------|
G|-------5---------|     G|-9--X-9--X-12-9--X-9--X-7-|
D|-7--7----7--7--5-|     D|-7--X-7--X-10-7--X-7--X-5-|
A|-----------------|     A|--------------------------|
E|[X--X--X-X--X--X]| x2  E|--------------------------| x20

e|---------------------------------------------------------------------------------|
B|---------------------------------------------------------------------------------|
G|-12-12-12-12-12-12-12-12-9-9-9-9-9-9-9-9-12-12-12-12-12-12-12-12-----------------|
D|-10-10-10-10-10-10-10-10-7-7-7-7-7-7-7-7-10-10-10-10-10-10-10-10-9-9-9-9-9-9-9-9-|
A|-----------------------------------------------------------------7-7-7-7-7-7-7-7-|
E|---------------------------------------------------------------------------------|

e|-----------------------------------------|
B|-----------------------------------------|
G|-12-12-12-12-12-12-12-12-9-9-9-9-9-9-9-9-|
D|-10-10-10-10-10-10-10-10-7-7-7-7-7-7-7-7-|
A|-----------------------------------------|
E|-----------------------------------------|

e|---------------------------------------------------------|
B|---------------------------------------------------------|
G|-7--7--8--8--9-9-9-9-9-9-9-9-7--7--8--8--9-9-9-9-9-9-9-9-|
D|-5--5--6--6--7-7-7-7-7-7-7-7-5--5--6--6--7-7-7-7-7-7-7-7-|
A|---------------------------------------------------------|
E|---------------------------------------------------------|

e|-------------------------|     e|--------------------|
B|-10-10-10-12-12-12-12-12-|     B|-10-10-10-7-7-7-7-7-|
G|--7--7--7-10-10-10-10-10-|     G|--7--7--7-4-4-4-4-4-|
D|-------------------------|     D|--------------------|
A|-------------------------|     A|--------------------|
E|-------------------------| x3  E|--------------------|

e|-------------------------|     e|---------------------------------|
B|-10-10-10-12-12-12-12-12-|     B|---------------------------------|
G|--7--7--7-10-10-10-10-10-|     G|-7-7-7-7-7-7-7-7-9-9-9-9-9-9-9-9-|
D|-------------------------|     D|-5-5-5-5-5-5-5-5-7-7-7-7-7-7-7-7-|
A|-------------------------|     A|---------------------------------|
E|-------------------------| x3  E|---------------------------------|

e|---------------------------------------------------------------------|
B|---------------------------------------------------------------------|
G|-9--9--9----9-9-9-9--9--9----9-9-9-9--9--9----9-9-9-9--9--9----9-9-9-|
D|-7--7--7----7-7-7-7--7--7----7-7-7-7--7--7----7-7-7-7--7--7----7-7-7-|
A|---------------------------------------------------------------------|
E|---------------------------------------------------------------------|

e|-----------------------------------------------------|
B|-----------------------------------------------------|
G|-9--9--7--7--9--9--7--7--9--9--7--7--9-9-9-9--7-9----|
D|-7--7--5--5--7--7--5--5--7--7--5--5--7-7-7-7--5-7----|
A|-----------------------------------------------------|
E|-----------------------------------------------------|


| ^  note bend
| r  release bend
|[X] palm mute
| /  slide up
| \  slide down
| h  hammer-on
| p  pull-off
| ~  vibrato
| +  harmonic
| x  Mute note
===============================================================================
Добавлено: 18.07.2012
Другие материалы по этой песне:
  • Аккорды и текст

Страница создана 30.05.2012
http://primanota.ru/dead-kennedys/stars-and-stripes-of-corruption-chords.htm
Привет, Гость.
Предлагаем пройти революционный курс по гитаре.
Подарок от PrimaNota.Ru, забирай!