PrimaNota.ru - самый крупный в мире бесплатный архив песенных текстов, аккордов, табулатур и нот


Dead Kennedys - Rawhide - текст песни, таба, видео

Регистрация Запомнить меня
Войти через:  Facebook Google Twitter Vk Yandex Mail.ru

Dead Kennedys - Rawhide - текст песни, таба, видео

Печатать
Просмотров: 144
Авторы музыки: Dimitri Tiomkin
Авторы текста: Ned Washington
-------------------------------------------------------------------------------
Rawhide - Dead Kennedys
Plastic Surgery Disasters & In God We Trust Inc. 
-------------------------------------------------------------------------------
Tabbed by: axeslash
Email: holmzito@yahoo.com

Tuning:

e|--------------------------------|
B|--------------------------------|
G|-7------------------------------|
D|-7------------------------------|
A|-5------------------------------|
E|-0------------------------------|

e|------------------------------------------------------------|
B|------------------------------------------------------------|
G|------------------------------------------------------------|
D|------------------------------------------------------------| 
A|-2--2-2-2-2-2-2-5--2--5--2------2-2-2-2-2-2-5--2--5--2------|
E|---------------------------3-0-------------------------3-0--|

e|----------------------------------------------------0----|
B|-------------------------------7--9----7-7-9----7-7-0----|
G|-------------------------------7--9----7-7-9----7-7-1----|
D|-------------------------------7--9----7-7-9----7-7-2----|
A|-2-2-2-2-2-2-5--2--5--2--------5--7----5-5-7----5-5-2----|  
E|------------------------3-0-------------------------0----|

e|-----------------|      e|------------------------------------------------|
B|-----------------|      B|-9-9-12-9--9-9----------------------------------|
G|-----------------|      G|-9-9-12-9--9-9----------------------------------|
D|-----------------| x10  D|-9-9-12-9--9-9----------------------------------|
A|-.-.-.-.-.-.-.-.-|      A|-7-7-10-7--7-7--.-.-.-.-.-.-.-.-.-.-.-.-.-.-.-.-|
E|-0-0-0-3-0-0-0-3-|      E|----------------0-0-0-3-0-0-0-3-0-0-0-3-0-0-0-3-|

e|-------------------|  e|-----------------|     e|-----------------|
B|-12-12-9-12--12-12-|  B|-----------------|     B|-----------------|
G|-12-12-9-12--12-12-|  G|-----------------|     G|-----------------|
D|-12-12-9-12--12-12-|  D|-----------------| x4  D|-----------------| x2
A|-10-10-7-10--10-10-|  A|-.-.-.-.-.-.-.-.-|     A|-----------------|
E|-------------------|  E|-0-0-0-3-0-0-0-3-|     E|-0-0-0-3-0-0-0-3-|

e|-3-3-3-3-3-3-3-3---------------------------------------------------|
B|-3-3-3-3-3-3-3-3---------------------------------------------------|
G|-4-4-4-4-4-4-4-4-9-9-9-9-9-9-9-9-9-7-7-7-7-1-1-1-1-4-4-4-4-7-7-7-7-|
D|-5-5-5-5-5-5-5-5-9-9-9-9-9-9-9-9-9-7-7-7-7-2-2-2-2-4-4-4-4-7-7-7-7-|
A|-5-5-5-5-5-5-5-5-7-7-7-7-7-7-7-7-7-5-5-5-5-2-2-2-2-2-2-2-2-5-5-5-5-|
E|-3-3-3-3-3-3-3-3---------------------------0-0-0-0-----------------|

e|----------------------------------------------------------------------------|
B|----------------------------------------------------------------------------|
G|-6-6-6-6-6-6-6-6------------------------------------------------------------|
D|-6-6-6-6-6-6-6-6------------------------------------------------------------| 
A|-4-4-4-4-4-4-4-4-2--2-2-2-2-2-2-5--2--5--2------2-2-2-2-2-2-5--2--5--2------|
E|-------------------------------------------3-0-------------------------3-0--|

e|----------------------------------------------------0----|
B|-------------------------------7--9----7-7-9----7-7-0----|
G|-------------------------------7--9----7-7-9----7-7-1----|
D|-------------------------------7--9----7-7-9----7-7-2----|
A|-2-2-2-2-2-2-5--2--5--2--------5--7----5-5-7----5-5-2----|  
E|------------------------3-0-------------------------0----|

e|-----------------|      e|-------------------------------------------------|
B|-----------------|      B|-9-9-12--12--12\---------------------------------|
G|-----------------|      G|-9-9-12--12--12\---------------------------------|
D|-----------------| x10  D|-9-9-12--12--12\---------------------------------|
A|-.-.-.-.-.-.-.-.-|      A|-7-7-10--10--10\-.-.-.-.-.-.-.-.-.-.-.-.-.-.-.-.-|
E|-0-0-0-3-0-0-0-3-|      E|-----------------0-0-0-3-0-0-0-3-0-0-0-3-0-0-0-3-|

e|----------------|  e|-----------------|     
B|-12-12-9--9\----|  B|-----------------|     
G|-12-12-9--9\----|  G|-----------------|     
D|-12-12-9--9\----|  D|-----------------| x6  
A|-10-10-7--7\----|  A|-.-.-.-.-.-.-.-.-|     
E|----------------|  E|-0-0-0-3-0-0-0-3-|     

e|-3-3-3-3-3-3-3-3---------------------------------------------------|
B|-3-3-3-3-3-3-3-3---------------------------------------------------|
G|-4-4-4-4-4-4-4-4-9-9-9-9-9-9-9-9-9-7-7-7-7-1-1-1-1-4-4-4-4-7-7-7-7-|
D|-5-5-5-5-5-5-5-5-9-9-9-9-9-9-9-9-9-7-7-7-7-2-2-2-2-4-4-4-4-7-7-7-7-|
A|-5-5-5-5-5-5-5-5-7-7-7-7-7-7-7-7-7-5-5-5-5-2-2-2-2-2-2-2-2-5-5-5-5-|
E|-3-3-3-3-3-3-3-3---------------------------0-0-0-0-----------------|

e|-----------------------------------------------------------------|
B|-----------------------------------------------------------------|
G|-6-6-6-6-6-6-6-6-----------------7-7-7-7---------4-4-4-4-7-7-7-7-|
D|-6-6-6-6-6-6-6-6-2-2-2-2-2-2-2-2-7-7-7-7-2-2-2-2-4-4-4-4-7-7-7-7-| 
A|-4-4-4-4-4-4-4-4-2-2-2-2-2-2-2-2-5-5-5-5-2-2-2-2-2-2-2-2-5-5-5-5-|
E|-----------------0-0-0-0-0-0-0-0---------0-0-0-0-----------------|

e|----------------------------------------------------------------------------|
B|----------------------------------------------------------------------------|
G|----------------------------------------------------------------------------|
D|-2-2-2-2-2-2-2-2------------------------------------------------------------| 
A|-2-2-2-2-2-2-2-2-2-2-2-2-5-5-5-5-----------5-5-5-5-2-2-2-2-5-5-5-5---5--5-5-|
E|-0-0-0-0-0-0-0-0-----------------3-3-3-3-3-------------------------3--------|

e|---------------------------------|  e|-----------------------------|
B|---------------------------------|  B|-----------------------------|
G|---------4-4-4-4-7-7-7-7-7-7-7-7-|  G|-----------------------------|
D|-5-5-5-5-4-4-4-4-7-7-7-7-7-7-7-7-|  D|-----------------------------|  x7
A|-5-5-5-5-2-2-2-2-5-5-5-5-5-5-5-5-|  A|-2-2-2-2-2-2-5--2--5--2------|
E|-3-3-3-3-------------------------|  E|------------------------3-0--|

e|-7-7-7-7-7-7-10--7--10--7-------|     e|-7-7-7-7-7-7-10--7--10--7-----------|
B|--------------------------8-----|     B|--------------------------8-9----9\-|
G|----------------------------9---|     G|----------------------------9----9\-|
D|--------------------------------| x3  D|----------------------------9----9\-|
A|--------------------------------|     A|----------------------------7----7\-|
E|--------------------------------|     E|------------------------------------|

| .  palm mute
| /  slide up
| \  slide down
| h  hammer-on
| p  pull-off
| ~  vibrato
| +  harmonic
| x  Mute note
===============================================================================
Добавлено: 29.06.2012
Другие материалы по этой песне:
  • Аккорды и текст

Страница создана 28.02.2012
http://primanota.ru/dead-kennedys/rawhide-chords.htm
Привет, Гость.
Предлагаем пройти революционный курс по гитаре.
Подарок от PrimaNota.Ru, забирай!