PrimaNota.ru - самый крупный в мире бесплатный архив песенных текстов, аккордов, табулатур и нот


Dead Kennedys - Plastic Surgery Disasters (album) - таба, видео

Регистрация Запомнить меня
Войти через:  Facebook Google Twitter Vk Yandex Mail.ru

Dead Kennedys - Plastic Surgery Disasters (album) - таба, видео

Печатать
Просмотров: 97
Submitted by Rbm90120
Date:April 18, 2005 7:35 am
======================================
SONG NAME__________________________TABBER______________________
1. Advice From Christmas Past	  :(beggining of goverment flu)
2. Government Flu 		  :Rambozo
3. Terminal Preppie		  :Rambozo
4. Trust Your Mechanic 		  :Sk8SkaNJ@optonline.net
5. Well Paid Scientist		  :Rambozo
6. Buzzbomb 			  :Rambozo
7. Forest Fire			  :Unknown
8. Halloween			  :Peter J. P.
9. Winnebago Warrior		  :Juha Kivijarvi
10. Riot 			  :Mxtabs
11. Bleed For Me 		  :Peter J. P
12. I Am the Owl  		  :CANT FIND
13. Dead End  			  :CANT FIND
14. Moon Over Marin		  :Juha Kivijarvi


----------------------------------------------------------------------------
1                                   Advice from Christmas Past
----------------------------------------------------------------------------

Basically just a bunch of noises can't really tell what the guitar is playing.
-----------------------------------------------------------------------------
2                                        Goverment Flu
-----------------------------------------------------------------------------

This looks annoying to read (and it is) 
I think some parts are wrong, but its close enough. I\'ll edit it later.


Intro x2
e|-7--5---8--7----777--5--7---8--7--5----77--5--|
B|-7--7--10--9----777--7--9--10--9--7----77--5--|
G|-8--7--10--9----888--7--9--10--9--7----88--6--|
D|-9--7--10--9----999--7--9--10--9--7----99--7--|
A|-9--5---8--7----999--5--7---8--7--5----99--7--|
E|-7--------------777--------------------77--5--|
 
e|-0-6-5-3-0-6-5-3-0-6-5-3-0-6-5-3--8--8--8--8--8--8--8--11-11--| 
B|----------------------------------8--8--8--8--8--8--8--11-11--| 
G|----------------------------------9--9--9--9--9--9--9--12-12--| 
D|---------------------------------10-10-10-10-10-10-10--13-13--|
A|---------------------------------10-10-10-10-10-10-10--13-13--|
E|----------------------------------8--8--8--8--8--8--8--11-11--|
 
e|--8--8--8--8--8--8--8--11-11-0-6-5-3-0-6-5-3-0-6-5-3-0-6-5-3--| 
B|--8--8--8--8--8--8--8--11-11----------------------------------| 
G|--9--9--9--9--9--9--9--12-12----------------------------------| 
D|-10-10-10-10-10-10-10--13-13----------------------------------| 
A|-10-10-10-10-10-10-10--13-13----------------------------------| 
E|--8--8--8--8--8--8--8--11-11----------------------------------| 


Verse x1
e|------------------------------------------------------------------| 
B|------------------------------------------------------------------| 
G|------------------------------------------------------------------| 
D|------------------------------------------------------------------| 
A|------------------------------------------------------------------| 
E|-0-6-5-3-0-6-5-3-0-6-5-3-0-6-5-3-0-6-5-3-0-6-5-3-0-6-5-3-0-6-5-3--| 
    ...........................p.m.................................

e|--8--8--12-12---8--8--12-12--8--8-------8--8--12-12---8--8--12-12--8--8----5-5-5-5--| 
B|-10-10--12-12--10-10--12-12-10-10------10-10--12-12--10-10--12-12-10-10----5-5-5-5--| 
G|-10-10---------10-10--------10-10------10-10---------10-10--------10-10----6-6-6-6--| 
D|-10-10---------10-10--------10-10------10-10---------10-10--------10-10----7-7-7-7--| 
A|--8--8----------8--8---------8--8-------8--8----------8--8---------8--8----7-7-7-7--| 
E|---------------------------------------------------------------------------5-5-5-5--| 

e|-5-5-5-5--6-6--0-6-5-3-0-6-5-3-0-6-5-3-0-6-5-3--|
B|-5-5-5-5--6-6-----------------------------------|
G|-6-6-6-6--7-7-----------------------------------|
D|-7-7-7-7--8-8-----------------------------------|
A|-7-7-7-7--8-8-----------------------------------|
E|-5-5-5-5--6-6-----------------------------------|

e|------------------------------------------------------------------| 
B|------------------------------------------------------------------| 
G|------------------------------------------------------------------| 
D|------------------------------------------------------------------| 
A|------------------------------------------------------------------| 
E|-0-6-5-3-0-6-5-3-0-6-5-3-0-6-5-3-0-6-5-3-0-6-5-3-0-6-5-3-0-6-5-3--| 
    ...........................p.m.................................

e|---------------------------------7-7--5-5--7-7--5-5--7-7--5-5--7-7-7-7--5-7--|
B|---------------------------------8-8--6-6--8-8--6-6--8-8--6-6--8-8-8-8--6-9--|
G|---------------------------------9-9--7-7--9-9--7-7--9-9--7-7--9-9-9-9--7-9--|
D|---------------------------------9-9--7-7--9-9--7-7--9-9--7-7--9-9-9-9--7-9--|
A|---------------------------------7-7--5-5--7-7--5-5--7-7--5-5--7-7-7-7--5-7--|
E|-0-6-5-3-0-6-5-3-0-6-5-3-0-6-5-3-7-7--5-5--7-7--5-5--7-7--5-5--7-7-7-7--5-7--|
   ...........p.m.................

Intro x1
e|-7--5---8--7----777--5--7---8--7--5----77--5--|
B|-7--7--10--9----777--7--9--10--9--7----77--5--|
G|-8--7--10--9----888--7--9--10--9--7----88--6--|
D|-9--7--10--9----999--7--9--10--9--7----99--7--|
A|-9--5---8--7----999--5--7---8--7--5----99--7--|
E|-7--------------777--------------------77--5--|

e|-8-8-8-8-8-8-11-11-8-8-8-8-8-8-11-11--7--5---8--7-7----7--5---8--7-7--|
B|-8-8-8-8-8-8-11-11-8-8-8-8-8-8-11-11--7--6---9--8-8----7--6---9--8-8--|
G|--------------------------------------8--7--10--9-9----8--7--10--9-9--|
D|--------------------------------------9--7--10--9-9----9--7--10--9-9--|
A|--------------------------------------9--5---8--7-7----9--5---8--7-7--|
E|--------------------------------------7--5---8--7-7----7--5---8--7-7--|

e|--------------------------------------0-6-5-3-0-6-5-3-0-6-5-3-0-6-5-3-|
B|-------------------------11-13-14-16----------------------------------|
G|-------------14-16-18-19-11-13-14-16----------------------------------|
D|-14-16-17-19-14-16-18-19--9-11-12-14----------------------------------|
A|-14-16-17-19-12-14-16-17----------------------------------------------|
E|-12-14-15-17----------------------------------------------------------|

e|------------------------------------------------------------------| 
B|------------------------------------------------------------------| 
G|------------------------------------------------------------------| 
D|------------------------------------------------------------------| 
A|------------------------------------------------------------------| 
E|-0-6-5-3-0-6-5-3-0-6-5-3-0-6-5-3-0-6-5-3-0-6-5-3-0-6-5-3-0-6-5-3--| 
    ...........................p.m.................................
   x1										 x2
e|--8--8--12-12---8--8--12-12--8--8-------8--8--12-12---8--8--12-12--8--8--|-5-5-5-5-6-6--| 
B|--9--9--12-12---9--9--12-12--9--9-------9--9--12-12---9--9--12-12--9--9--|-5-5-5-5-6-6--| 
G|-10-10---------10-10--------10-10------10-10---------10-10--------10-10--|-6-6-6-6-7-7--| 
D|-10-10---------10-10--------10-10------10-10---------10-10--------10-10--|-7-7-7-7-8-8--| 
A|--8--8----------8--8---------8--8-------8--8----------8--8---------8--8--|-7-7-7-7-8-8--| 
E|--8--8----------8--8---------8--8-------8--8----------8--8---------8--8--|-5-5-5-5-6-6--| 

e|--------------------------------------|
B|-------------------------11-13-14-16--|
G|-------------14-16-18-19-11-13-14-16--|
D|-14-16-17-19-14-16-18-19--9-11-12-14--|
A|-14-16-17-19-12-14-16-17--------------|
E|-12-14-15-17--------------------------|

   x2				  x1
e|--8--8--8--8--8--8--8--11-11-|-0-6-5-3-0--| 
B|--8--8--8--8--8--8--8--11-11-|------------| 
G|--9--9--9--9--9--9--9--12-12-|------------| 
D|-10-10-10-10-10-10-10--13-13-|------------| 
A|-10-10-10-10-10-10-10--13-13-|------------| 
E|--8--8--8--8--8--8--8--11-11-|------------|



-------------------------------------------------------------------------------
3                                       Terminal Preppie
-------------------------------------------------------------------------------

e-|-------------------------------------------------------|
B-|-------------------------------------------------------|
G-|-------------------------------------------------------|
D-|-------5-5-----5-5-------5-5-7-7-5-5-------5-5-7-7-5-5-|
A-|-5-8-8-3-3-8-8-3-3-5-8-8-3-3-5-5-3-3-5-8-8-3-3-5-5-3-3-|
E-|-3-6-6-----6-6-----3-6-6-------------3-6-6-------------|

e-|-------------------------------------------------------------------|
B-|-------------------------------------------------------------------|
G-|-------------------------------------------------------------------|
D-|-----------------------5-------------------------------------------|
A-|-5-5-8-8-5-5-8-8-5-5-8-3-8-5-5-8-8-5-5-8-8-3-3-3-3-5-5-8-8-5-5-8-8-|
E-|-3-3-6-6-3-3-6-6-3-3-6---6-3-3-6-6-3-3-6-6-1-1-1-1-3-3-6-6-3-3-6-6-|

e-|-------------------------|
B-|-------------------------|
G-|-------------------------|
D-|-------5---6-6-5-5-------|
A-|-5-5-8-3-8-4-4-3-3-8-8-5-|
E-|-3-3-6---6---------6-6-3-|

e-|-------------------------------------------------------------------------|
B-|-------------------------------------------------------------------------|
G-|---------5-5-7-7-5-7---------5-5-7-7-5-7---------5-5-7-7-5-7-------------|
D-|-------------------------------------------------------------------------|
A-|-5-5-5-5-------------3-3-3-3-------------5-5-5-5-------------3-3-3-3-5-5-|
E-|-3-3-3-3-------------1-1-1-1-------------3-3-3-3-------------1-1-1-1-3-3-|

e-|---------------------------------|
B-|---------------------------------|
G-|---------------------------------|
D-|-------5-5-----5-------5-5-7-7-5-|
A-|-5-8-8-3-3-8-8-3-5-8-8-3-3-5-5-3-|
E-|-3-6-6-----6-6---3-6-6-----------|

e-|-------------------------------------------------------------------|
B-|-------------------------------------------------------------------|
G-|-------------------------------------------------------------------|
D-|-----------------------5-------------------------------------------|
A-|-5-5-8-8-5-5-8-8-5-5-8-3-8-5-5-8-8-5-5-8-8-3-3-3-3-5-5-8-8-5-5-8-8-|
E-|-3-3-6-6-3-3-6-6-3-3-6---6-3-3-6-6-3-3-6-6-1-1-1-1-3-3-6-6-3-3-6-6-|

e-|-------------------------|
B-|-------------------------|
G-|-------------------------|
D-|-------5---6-6-5-5-------|
A-|-5-5-8-3-8-4-4-3-3-8-8-5-|
E-|-3-3-6---6---------6-6-3-|

e-|-------------------------------------------------------------------------|
B-|-------------------------------------------------------------------------|
G-|---------5-5-7-7-5-7---------5-5-7-7-5-7---------5-5-7-7-5-7-------------|
D-|-------------------------------------------------------------------------|
A-|-5-5-5-5-------------3-3-3-3-------------5-5-5-5-------------3-3-3-3-5-5-|
E-|-3-3-3-3-------------1-1-1-1-------------3-3-3-3-------------1-1-1-1-3-3-|

e-|-----------------------------------------------------------------|
B-|-----------------------------------------------------------------|
G-|-----------------------------------------------------------------|
D-|-----------------------------------------------------------------|
A-|-8-5-5-5-8-5-5-5-8-5-5-5-8-5-5-5-8-5-5-5-8-5-5-5-8-5-5-5-8-5-5-5-|
E-|-6-3-3-3-6-3-3-3-6-3-3-3-6-3-3-3-6-3-3-3-6-3-3-3-6-3-3-3-6-3-3-3-|

e-|---------------------------------------------------------------------|
B-|---------------------------------------------------------------------|
G-|---------------------------------------------------------------------|
D-|-------------------------------------------------5-------------------|
A-|-5-5-8-8-5-5-8-8-5-5-8-3-8-5-5-8-8-5-5-8-8-5-5-8-3-8-5-5-8-8-5-5-8-8-|
E-|-3-3-6-6-3-3-6-6-3-3-6---6-3-3-6-6-3-3-6-6-3-3-6---6-3-3-6-6-3-3-6-6-|

e-|-------------------------------------------------|
B-|-------------------------------------------------|
G-|-------------------------------------------------|
D-|-------------------------------------------------|
A-|-5-5-8-8-5-5-8-8-5-5-8-8-5-5-8-8-5-5-5-5-5-5-5-5-|
E-|-3-3-6-6-3-3-6-6-3-3-6-6-3-3-6-6-3-3-3-3-3-3-3-3-|

e-|-------------------------------------------------------------------------|
B-|-------------------------------------------------------------------------|
G-|---------5-5-7-7-5-7---------5-5-7-7-5-7---------5-5-7-7-5-7-------------|
D-|-------------------------------------------------------------------------|
A-|-5-5-5-5-------------3-3-3-3-------------5-5-5-5-------------3-3-3-3-5-5-|
E-|-3-3-3-3-------------1-1-1-1-------------3-3-3-3-------------1-1-1-1-3-3-|

e-|-------------------------------------------------------------------------|
B-|-------------------------------------------------------------------------|
G-|---------7-7-9-9-7-9---------7-7-9-9-7-9---------7-7-9-9-7-9-------------|
D-|-------------------------------------------------------------------------|
A-|-7-7-7-7-------------5-5-5-5-------------7-7-7-7-------------5-5-5-5-7-7-|
E-|-5-5-5-5-------------3-3-3-3-------------5-5-5-5-------------3-3-3-3-5-5-|

e-|--------------------------------------------|
B-|--------------------------------------------|
G-|-----5-5-9-9-5-5-7-5-------5-5-9-9-5-5-12-9-|
D-|-7-7-----------------7-7-7------------------|
A-|--------------------------------------------|
E-|--------------------------------------------|

e-|-----------------------------------------------------------------|
B-|-----------------------------------------------------------------|
G-|-----------------------------------------------------------------|
D-|----------------------------7-------------------------------7----|
A-|-7-7-10-10-7-7-10-10-7-7-10-5-10-7-7-10-10-7-7-10-10-7-7-10-5-10-|
E-|-5-5--8--8-5-5--8--8-5-5--8----8-5-5--8--8-5-5--8--8-5-5--8----8-|

e-|------------------------------------------------|
B-|------------------------------------------------|
G-|------------------------------------------------|
D-|----------------------------7-------------------|
A-|-7-7-10-10-7-7-10-10-7-7-10-5-10-7-10-5-10-10-7-|
E-|-5-5--8--8-5-5--8--8-5-5--8----8-5--8----8--8-5-|

--------------------------------------------------------------------------------
4                                     Trust your Mechanic
--------------------------------------------------------------------------------

Intro x2
e|-5-5--5-5--3--5---8--3-3-|
B|-7-7--5-5--5--7--10--5-5-|
G|-7-7--6-6--5--7--10--5-5-|
D|-7-7--7-7--5--7--10--5-5-|
A|-5-5--7-7--3--5---8--3-3-|
E|------5-5----------------|

Verse x6
e|-5-5-6-6-5-5-3-3--|
B|-7-7-8-8-7-7-5-5--|
G|-7-7-8-8-7-7-5-5--|
D|-7-7-8-8-7-7-5-5--|
A|-5-5-6-6-5-5-3-3--|
E|------------------|

Chorus x4          x1
e|--8--8--9--9--|-5-5-5-5--5-5-5-5-|
B|-10-10-11-11--|-7-7-7-7--7-7-7-7-|
G|-10-10-11-11--|-7-7-7-7--7-7-7-7-|
D|-10-10-11-11--|-7-7-7-7--7-7-7-7-|
A|--8--8--9--9--|-5-5-5-5--5-5-5-5-|
E|--------------|------------------|

Verse x4
e|-5-5-6-6-5-5-3-3--|
B|-7-7-8-8-7-7-5-5--|
G|-7-7-8-8-7-7-5-5--|
D|-7-7-8-8-7-7-5-5--|
A|-5-5-6-6-5-5-3-3--|
E|------------------|

Chorus x4         x1
e|--8--8--9--9--|-5-5-5-5--|
B|-10-10-11-11--|-7-7-7-7--|
G|-10-10-11-11--|-7-7-7-7--|
D|-10-10-11-11--|-7-7-7-7--|
A|--8--8--9--9--|-5-5-5-5--|
E|--------------|----------|

Bridge x3
e|-5-5--5-5--3--5---8--3-3-|
B|-7-7--5-5--5--7--10--5-5-|
G|-7-7--6-6--5--7--10--5-5-|
D|-7-7--7-7--5--7--10--5-5-|
A|-5-5--7-7--3--5---8--3-3-|
E|------5-5----------------|

Very Slight Pick Slides
Verse x6

e|-5-5-6-6-5-5-3-3--|
B|-7-7-8-8-7-7-5-5--|
G|-7-7-8-8-7-7-5-5--|
D|-7-7-8-8-7-7-5-5--|
A|-5-5-6-6-5-5-3-3--|
E|------------------|

Chrous x4         x1
e|--8--8--9--9--|-5-5-5-5--|
B|-10-10-11-11--|-7-7-7-7--|
G|-10-10-11-11--|-7-7-7-7--|
D|-10-10-11-11--|-7-7-7-7--|
A|--8--8--9--9--|-5-5-5-5--|
E|--------------|----------|

Verse x4
e|-5-5-6-6-5-5-3-3-----|
B|-7-7-8-8-7-7-5-5-----|
G|-7-7-8-8-7-7-5-5-----|
D|-7-7-8-8-7-7-5-5-----|
A|-5-5-6-6-5-5-3-3-----|
|E|--------------------|

Chorus x4         x1
e|--8--8--9--9--|-5-5-5-5--5-5-5-5-|
B|-10-10-11-11--|-7-7-7-7--7-7-7-7-|
G|-10-10-11-11--|-7-7-7-7--7-7-7-7-|
D|-10-10-11-11--|-7-7-7-7--7-7-7-7-|
A|--8--8--9--9--|-5-5-5-5--5-5-5-5-|
E|--------------|------------------|

Very Slight Pick Slides

Outro x3                     x1
e|-5-5--5-5--3--5---8--3-3-|-5-5-|
B|-7-7--5-5--5--7--10--5-5-|-7-7-|
G|-7-7--6-6--5--7--10--5-5-|-7-7-|
D|-7-7--7-7--5--7--10--5-5-|-7-7-|
A|-5-5--7-7--3--5---8--3-3-|-5-5-|
E|------5-5----------------|-----|
--

---------------------------------------------------------------------------------
5                                      Well Paid Scientist
---------------------------------------------------------------------------------


By: Rambozo

e-|---------------------------------------------------------------------|
B-|---------------------------------------------------------------------|
G-|---------------------------------------------------------------------|
D-|---------------------------------------------------------------------|
A-|-7-7-4-4-4-4-4-4-7-7-5-5-5-5-5-5-7-7-4-4-4-4-4-4-7-7-5-5-5-5-5-5-7-7-|
E-|-5-5-2-2-2-2-2-2-5-5-3-3-3-3-3-3-5-5-2-2-2-2-2-2-5-5-3-3-3-3-3-3-5-5-|

e-|-------------------------------------------------------------
B-|-------------------------------------------------------------
G-|-------------------------------------------------------------
D-|-------------------------------------------------------------
A-|-4-4-4-4-4-4-7-7-5-5-5-5-5-5-7-7-4-4-4-4-4-4-7-7-5-5-5-5-5-5-
E-|-2-2-2-2-2-2-5-5-3-3-3-3-3-3-5-5-2-2-2-2-2-2-5-5-3-3-3-3-3-3-

e-|-------------------------------------------------------------|
B-|-------------------------------------------------------------|
G-|-------------------------------------------------------------|
D-|-------------------------------------------------------------|
A-|-4-4-4-4-4-4-7-7-5-5-5-5-5-5-7-7-4-4-4-4-4-4-7-7-5-5-5-5-5-5-|
E-|-2-2-2-2-2-2-5-5-3-3-3-3-3-3-5-5-2-2-2-2-2-2-5-5-3-3-3-3-3-3-|

e-|-------------------------------------|
B-|-------------------------------------|
G-|-------------------------------------|
D-|-5-5-5-5-------------5-5-5-5---------|
A-|-3-3-3-3-9-7-9-4-7-9-3-3-3-3-9-7-9-4-|
E-|---------7-5-7-2-5-7---------7-5-7-2-|

e-|-------------------------------------------------------------
B-|-------------------------------------------------------------
G-|-------------------------------------------------------------
D-|-------------------------------------------------------------
A-|-4-4-4-4-4-4-7-7-5-5-5-5-5-5-7-7-4-4-4-4-4-4-7-7-5-5-5-5-5-5-
E-|-2-2-2-2-2-2-5-5-3-3-3-3-3-3-5-5-2-2-2-2-2-2-5-5-3-3-3-3-3-3-

e-|-------------------------------------------------------------|
B-|-------------------------------------------------------------|
G-|-------------------------------------------------------------|
D-|-------------------------------------------------------------|
A-|-4-4-4-4-4-4-7-7-5-5-5-5-5-5-7-7-4-4-4-4-4-4-7-7-5-5-5-5-5-5-|
E-|-2-2-2-2-2-2-5-5-3-3-3-3-3-3-5-5-2-2-2-2-2-2-5-5-3-3-3-3-3-3-|

e-|-------------------------------------|
B-|-------------------------------------|
G-|-------------------------------------|
D-|-5-5-5-5-------------5-5-5-5---------|
A-|-3-3-3-3-9-7-9-4-7-9-3-3-3-3-9-7-9-4-|
E-|---------7-5-7-2-5-7---------7-5-7-2-|

e-|----------------------|
B-|----------------------|
G-|----------------------|
D-|-11-7-9-11-7-9-11-7-9-|
A-|--9-5-7--9-5-7--9-5-7-|
E-|----------------------|

e-|---------------------------------------------------
B-|---------------------------------------------------
G-|---------------------------------------------------
D-|-6-6-6-5-4-3-6-6-6-5-4-3-6-6-6-5-4-3-6-6-6---6-6-6-
A-|-4-4-4-3-2-1-4-4-4-3-2-1-4-4-4-3-2-1-4-4-4---4-4-4-
E-|---------------------------------------------------

e-|---------------------------------------------------
B-|---------------------------------------------------
G-|---------------------------------------------------
D-|-6-6-6-5-4-3-6-6-6-5-4-3-6-6-6-5-4-3-6-6-6--5-4-3--
A-|-4-4-4-3-2-1-4-4-4-3-2-1-4-4-4-3-2-1-4-4-4--3-2-1--
E-|---------------------------------------------------

e-|---------------------------------------------------|
B-|---------------------------------------------------|
G-|---------------------------------------------------|
D-|-6-6-6-5-4-3-6-6-6-5-4-3-6-6-6-5-4-3-6-6-6--5-4-3--|
A-|-4-4-4-3-2-1-4-4-4-3-2-1-4-4-4-3-2-1-4-4-4--3-2-1--|
E-|---------------------------------------------------|

e-|-----------------------------------------------|
B-|-----------------------------------------------|
G-|-----------------------------------------------|
D-|-6-5-4-5-6-5-4-5-6-5-4-5-----------------------|
A-|-4-3-2-3-4-3-2-3-4-3-2-3-4-4-7-7-4-4-7-7-4-4-7-|
E-|-------------------------2-2-5-5-2-2-5-5-2-2-5-|

e-|-------------------------------------------------------------
B-|-------------------------------------------------------------
G-|-------------------------------------------------------------
D-|-------------------------------------------------------------
A-|-4-4-4-4-4-4-7-7-5-5-5-5-5-5-7-7-4-4-4-4-4-4-7-7-5-5-5-5-5-5-
E-|-2-2-2-2-2-2-5-5-3-3-3-3-3-3-5-5-2-2-2-2-2-2-5-5-3-3-3-3-3-3-

e-|-------------------------------------------------------------|
B-|-------------------------------------------------------------|
G-|-------------------------------------------------------------|
D-|-------------------------------------------------------------|
A-|-4-4-4-4-4-4-7-7-5-5-5-5-5-5-7-7-4-4-4-4-4-4-7-7-5-5-5-5-5-5-|
E-|-2-2-2-2-2-2-5-5-3-3-3-3-3-3-5-5-2-2-2-2-2-2-5-5-3-3-3-3-3-3-|

e-|-------------------------------------|
B-|-------------------------------------|
G-|-------------------------------------|
D-|-5-5-5-5-------------5-5-5-5---------|
A-|-3-3-3-3-9-7-9-4-7-9-3-3-3-3-9-7-9-4-|
E-|---------7-5-7-2-5-7---------7-5-7-2-|

e-|----------------------------------|
B-|----------------------------------|
G-|----------------------------------|
D-|-6-5-4-5-6-5-4-5-6-5-4-5-6-5-4-5--|
A-|-4-3-2-3-4-3-2-3-4-3-2-3-4-3-2-3--|
E-|----------------------------------|

e-|---------------------------------------------------|
B-|---------------------------------------------------|
G-|---------------------------------------------------|
D-|-6-6-6-5-4-3-6-6-6-5-4-3-6-6-6-5-4-3-6-6-6--5-4-3--|
A-|-4-4-4-3-2-1-4-4-4-3-2-1-4-4-4-3-2-1-4-4-4--3-2-1--|
E-|---------------------------------------------------|


---------------------------------------------------------------------------------
6                                           Buzzbomb
---------------------------------------------------------------------------------


e-|-----------------------------------------------------------------|
B-|-----------------------------------------------------------------|
G-|-----------------------------------------------------------------|
D-|-----------------------------------------------------------------|
A-|-5-5-8-8-5-5-8-8-5-5-8-8-5-5-8-8-5-5-8-8-5-5-8-8-5-5-8-8-5-5-8-8-|
E-|-3-3-6-6-3-3-6-6-3-3-6-6-3-3-6-6-3-3-6-6-3-3-6-6-3-3-6-6-3-3-6-6-|

e-|-----------------------------------------------------------------|
B-|-----------------------------------------------------------------|
G-|-----------------------------------------------------------------|
D-|-----------------------------------------------------------------|
A-|-----------------------------------------------------------------|
E-|-4-4-7-7-4-4-7-7-4-4-7-7-4-4-7-7-3-3-6-6-3-3-6-6-3-3-6-6-3-3-6-6-|

e-|-----------------------------------------------------------------|
B-|-----------------------------------------------------------------|
G-|-----------------------------------------------------------------|
D-|-----------------------------------------------------------------|
A-|-----------------------------------------------------------------|
E-|-4-4-7-7-4-4-7-7-4-4-7-7-4-4-7-7-3-3-6-6-3-3-6-6-3-3-6-6-3-3-6-6-|

e-|-----------------------------------------------------------------|
B-|-----------------------------------------------------------------|
G-|-----------------------------------------------------------------|
D-|-----------------------------------------------------------------|
A-|-9-9-9-9-9-9-9-9-8-8-8-8-8-8-8-8-9-9-9-9-9-9-9-9-8-8-8-8-8-8-8-8-|
E-|-7-7-7-7-7-7-7-7-6-6-6-6-6-6-6-6-7-7-7-7-7-7-7-7-6-6-6-6-6-6-6-6-|

e-|-----------------------------------------------------------------|
B-|-----------------------------------------------------------------|
G-|-----------------------------------------------------------------|
D-|-----------------------------------------------------------------|
A-|-----------------------------------------------------------------|
E-|-4-4-7-7-4-4-7-7-4-4-7-7-4-4-7-7-3-3-6-6-3-3-6-6-3-3-6-6-3-3-6-6-|

e-|-----------------------------------------------------------------|
B-|-----------------------------------------------------------------|
G-|-----------------------------------------------------------------|
D-|-----------------------------------------------------------------|
A-|-----------------------------------------------------------------|
E-|-4-4-7-7-4-4-7-7-4-4-7-7-4-4-7-7-3-3-6-6-3-3-6-6-3-3-6-6-3-3-6-6-|

e-|-----------------------------------------------------------------|
B-|-----------------------------------------------------------------|
G-|-----------------------------------------------------------------|
D-|-----------------------------------------------------------------|
A-|-9-9-9-9-9-9-9-9-8-8-8-8-8-8-8-8-9-9-9-9-9-9-9-9-8-8-8-8-8-8-8-8-|
E-|-7-7-7-7-7-7-7-7-6-6-6-6-6-6-6-6-7-7-7-7-7-7-7-7-6-6-6-6-6-6-6-6-|

e-|-----------------------------------------------------------------|
B-|-----------------------------------------------------------------|
G-|-----------------------------------------------------------------|
D-|-7-7-7-7-7-7-7-7-5-5-5-5-5-5-5-5-4-4-4-4-4-4-4-4-3-3-3-3-3-3-3-3-|
A-|-5-5-5-5-5-5-5-5-3-3-3-3-3-3-3-3-2-2-2-2-2-2-2-2-1-1-1-1-1-1-1-1-|
E-|-----------------------------------------------------------------|

e-|---------------------------------|
B-|---------------------------------|
G-|---------------------------------|
D-|---------------------------------|
A-|-5-5-8-8-5-5-8-8-5-5-8-8-5-5-8-8-|
E-|-3-3-6-6-3-3-6-6-3-3-6-6-3-3-6-6-|

e-|-----------------------------------------------------------------|
B-|-----------------------------------------------------------------|
G-|-----------------------------------------------------------------|
D-|-----------------------------------------------------------------|
A-|-----------------------------------------------------------------|
E-|-4-4-7-7-4-4-7-7-4-4-7-7-4-4-7-7-3-3-6-6-3-3-6-6-3-3-6-6-3-3-6-6-|

e-|-----------------------------------------------------------------|
B-|-----------------------------------------------------------------|
G-|-----------------------------------------------------------------|
D-|-----------------------------------------------------------------|
A-|-----------------------------------------------------------------|
E-|-4-4-7-7-4-4-7-7-4-4-7-7-4-4-7-7-3-3-6-6-3-3-6-6-3-3-6-6-3-3-6-6-|

e-|-----------------------------------------------------------------|
B-|-----------------------------------------------------------------|
G-|-----------------------------------------------------------------|
D-|-----------------------------------------------------------------|
A-|-9-9-9-9-9-9-9-9-8-8-8-8-8-8-8-8-9-9-9-9-9-9-9-9-8-8-8-8-8-8-8-8-|
E-|-7-7-7-7-7-7-7-7-6-6-6-6-6-6-6-6-7-7-7-7-7-7-7-7-6-6-6-6-6-6-6-6-|

e-|-----------------------------------------------------------------|
B-|-----------------------------------------------------------------|
G-|-----------------------------------------------------------------|
D-|-7-7-7-7-7-7-7-7-5-5-5-5-5-5-5-5-4-4-4-4-4-4-4-4-3-3-3-3-3-3-3-3-|
A-|-5-5-5-5-5-5-5-5-3-3-3-3-3-3-3-3-2-2-2-2-2-2-2-2-1-1-1-1-1-1-1-1-|
E-|-----------------------------------------------------------------|

e-|---------------------------------|
B-|---------------------------------|
G-|---------------------------------|
D-|---------------------------------|
A-|-5-5-8-8-5-5-8-8-5-5-8-8-5-5-8-8-|
E-|-3-3-6-6-3-3-6-6-3-3-6-6-3-3-6-6-|

e-|------------------------------------------------------------------------|
B-|-12-12-12-12-12-12-10---------------------------------------------------|
G-|----------------------12-11-11-11-11-11-11-11-9-11-12-12-12-12-12-12-14-|
D-|------------------------------------------------------------------------|
A-|------------------------------------------------------------------------|
E-|------------------------------------------------------------------------|

e-|------------------------------------------------------------------------|
B-|-------------------------12-12-12-12-12-12-10---------------------------|
G-|-11-11-11-11-11-11-11-11----------------------12-11-11-11-11-11-11-11-9-|
D-|------------------------------------------------------------------------|
A-|------------------------------------------------------------------------|
E-|------------------------------------------------------------------------|

e-|-------------------------------|
B-|-------------------------13-12-|
G-|-11-12-12-12-12-12-12-12-------|
D-|-------------------------------|
A-|-------------------------------|
E-|-------------------------------|

e-|-----------------------------------------------------------------|
B-|-----------------------------------------------------------------|
G-|-----------------------------------------------------------------|
D-|-----------------------------------------------------------------|
A-|-----------------------------------------------------------------|
E-|-4-4-7-7-4-4-7-7-4-4-7-7-4-4-7-7-3-3-6-6-3-3-6-6-3-3-6-6-3-3-6-6-|

e-|-----------------------------------------------------------------|
B-|-----------------------------------------------------------------|
G-|-----------------------------------------------------------------|
D-|-----------------------------------------------------------------|
A-|-----------------------------------------------------------------|
E-|-4-4-7-7-4-4-7-7-4-4-7-7-4-4-7-7-3-3-6-6-3-3-6-6-3-3-6-6-3-3-6-6-|

e-|---------------------------------------------------|
B-|---------------------------------------------------|
G-|---------------------------------------------------|
D-|---------------------------------------------------|
A-|-9-9-9-9-9-9-9-9-8-8-8-8-8-8-8-8-9-9-9-9-9-9-9-9-8-|
E-|-7-7-7-7-7-7-7-7-6-6-6-6-6-6-6-6-7-7-7-7-7-7-7-7-6-|

e-|--------------------------------------------|
B-|--------------------------------------------|
G-|--------------------------------------------|
D-|--------------------------------------------|
A-|-5-5-8-8-5--5-5-8-8-5--5-5-8-8-5--5-5-8-8-2-|
E-|-3-3-6-6-3--3-3-6-6-3--3-3-6-6-3--3-3-6-6-0-|

---------------------------------------------------------------------------------
7                                          Forest Fire
---------------------------------------------------------------------------------
You have to pick out ntoes from some of the intro chords.


Intro x1           x1
e|-2-2--4-4--2-2-|-4-4-4-4--2-2-2-2--4-4-4-4--2-2-2--7-7--4--|
B|-4-4--6-6--4-4-|-6-6-6-6--4-4-4-4--6-6-6-6--4-4-4--9-9--6--|
G|-4-4--6-6--4-4-|-6-6-6-6--4-4-4-4--6-6-6-6--4-4-4--9-9--6--|
D|-4-4--6-6--4-4-|-6-6-6-6--4-4-4-4--6-6-6-6--4-4-4--9-9--6--| Slow Pickslide
A|-2-2--4-4--2-2-|-4-4-4-4--2-2-2-2--4-4-4-4--2-2-2--7-7--4--|
E|---------------|-------------------------------------------|

Verse x2
e|-2-2-2--5--2-2--2-2-2--5--2-2--5-5--5-5--7-7--5-5--2-2-2--5--2-2--|
B|-4-4-4--7--4-4--4-4-4--7--4-4--7-7--5-5--9-9--5-5--4-4-4--7--4-4--|
G|-4-4-4--7--4-4--4-4-4--7--4-4--7-7--6-6--9-9--6-6--4-4-4--7--4-4--|
D|-4-4-4--7--4-4--4-4-4--7--4-4--7-7--7-7--9-9--7-7--4-4-4--7--4-4--|
A|-2-2-2--5--2-2--2-2-2--5--2-2--5-5--7-7--7-7--7-7--2-2-2--5--2-2--|
E|------------------------------------5-5-------5-5-----------------|

Chorus  x2
e|-5--7-7--5--5-5--7--5-5--7--5-5--|
B|-5--7-7--5--7-7--7--5-5--7--7-7--|
G|-6--8-8--6--7-7--8--6-6--8--7-7--|
D|-7--9-9--7--7-7--9--7-7--9--7-7--|
A|-7--9-9--7--5-5--9--7-7--9--5-5--|
E|-5--7-7--5-------7--5-5--7-------|

Post Chorus x1
e|-7-7-7-7-7-7-7--6--5-5-5-5-5-5-5--4--3-3-3-3-3-3-3--4--5-5-5-5-5-5-5--|
B|-7-7-7-7-7-7-7--6--5-5-5-5-5-5-5--4--3-3-3-3-3-3-3--4--5-5-5-5-5-5-5--|
G|-8-8-8-8-8-8-8--7--6-6-6-6-6-6-6--5--4-4-4-4-4-4-4--5--6-6-6-6-6-6-6--|
D|-9-9-9-9-9-9-9--8--7-7-7-7-7-7-7--6--5-5-5-5-5-5-5--6--7-7-7-7-7-7-7--|
A|-9-9-9-9-9-9-9--8--7-7-7-7-7-7-7--6--5-5-5-5-5-5-5--6--7-7-7-7-7-7-7--|
E|-7-7-7-7-7-7-7--6--5-5-5-5-5-5-5--4--3-3-3-3-3-3-3--4--5-5-5-5-5-5-5--|

Verse x1
e|-2-2-2--5--2-2--2-2-2--5--2-2--5-5--5-5--7-7--5-5--2-2-2--5--2-2--|
B|-4-4-4--7--4-4--4-4-4--7--4-4--7-7--5-5--9-9--5-5--4-4-4--7--4-4--|
G|-4-4-4--7--4-4--4-4-4--7--4-4--7-7--6-6--9-9--6-6--4-4-4--7--4-4--|
D|-4-4-4--7--4-4--4-4-4--7--4-4--7-7--7-7--9-9--7-7--4-4-4--7--4-4--|
A|-2-2-2--5--2-2--2-2-2--5--2-2--5-5--7-7--7-7--7-7--2-2-2--5--2-2--|
E|------------------------------------5-5-------5-5-----------------|

Chorus x1
e|-5--7-7--5--5-5--7--5-5--7--5-5--|
B|-5--7-7--5--7-7--7--5-5--7--7-7--|
G|-6--8-8--6--7-7--8--6-6--8--7-7--|
D|-7--9-9--7--7-7--9--7-7--9--7-7--|
A|-7--9-9--7--5-5--9--7-7--9--5-5--|
E|-5--7-7--5-------7--5-5--7-------|

Solo x1
e|-14-13-12-12-14-13-12-12-14-13-12-12-14-13-12-12--12-11-10-10-12-11-10-10--|
B|---------------------------------------------------------------------------|
G|---------------------------------------------------------------------------|
D|---------------------------------------------------------------------------|
A|---------------------------------------------------------------------------|
E|---------------------------------------------------------------------------|

e|-12-11-10-10-12-11-10-10--14-13-12-12-14-13-12-12-14-13-12-12-14-13-12-12--|
B|---------------------------------------------------------------------------|
G|---------------------------------------------------------------------------|
D|---------------------------------------------------------------------------|
A|---------------------------------------------------------------------------|
E|---------------------------------------------------------------------------|

e|-12-11-10-10-12-11-10-10-12-11-10-10-12-11-10-10-14-13-12-12-14-13-12-12--|
B|--------------------------------------------------------------------------|
G|--------------------------------------------------------------------------|
D|--------------------------------------------------------------------------|
A|--------------------------------------------------------------------------|
E|--------------------------------------------------------------------------|

e|-12-11-10-10-12-11-10-10-14-13-12-12-14-13-12-12-12-11-10-10-12-11-10-10--|
B|--------------------------------------------------------------------------|
G|--------------------------------------------------------------------------|
D|--------------------------------------------------------------------------|
A|--------------------------------------------------------------------------|
E|--------------------------------------------------------------------------|

e|-14-13-12-12-14-13-12-12--12-11-10-10-12-11-10-10---9--9--9--9-12--|
B|---------------------------------------------------10-10-10-10-13--|
G|---------------------------------------------------11-11-11-11-14--|
D|---------------------------------------------------11-11-11-11-14--|
A|----------------------------------------------------9--9--9--9-12--|
E|----------------------------------------------------9--9--9--9-12--|

Verse x2
e|-4-4-4-4--7--4-4--4-4-4-4--7--4-4--7-7--7-7---9--9--7-7--4-4-4-4--7--4-4--|
B|-6-6-6-6--9--4-4--4-4-4-4--9--6-6--9-9--7-7--11-11--7-7--6-6-6-6--9--6-6--|
G|-6-6-6-6--9--6-6--6-6-6-6--9--6-6--9-9--8-8--11-11--8-8--6-6-6-6--9--6-6--|
D|-6-6-6-6--9--6-6--6-6-6-6--9--6-6--9-9--9-9--11-11--9-9--6-6-6-6--9--6-6--|
A|-4-4-4-4--7--4-4--4-4-4-4--7--4-4--7-7--9-9---9--9--9-9--4-4-4-4--7--4-4--|
E|----------------------------------------7-7---------7-7-------------------|

Chorus x1
e|-7---9--9--7--7-7---9--7-7---9--7-7--7---9--9--7--7-7---9--7-7---9--|
B|-7---9--9--7--9-9---9--7-7---9--9-9--7---9--9--7--9-9---9--7-7---9--|
G|-8--10-10--8--9-9--10--8-8--10--9-9--8--10-10--8--9-9--10--8-8--10--|
D|-9--11-11--9--9-9--11--9-9--11--9-9--9--11-11--9--9-9--11--9-9--11--|
A|-9--11-11--9--7-7--11--9-9--11--7-7--9--11-11--9--7-7--11--9-9--11--|
E|-7---9--9--7--------9--7-7---9-------7---9--9--7--------9--7-7---9--|

Post Chorus x1
e|--9--9--9--9--9--9--9---8--7-7-7-7-7-7-7---8---9--9--9--9--9--9--9---8--7-7-7-7-7-7-7-7--|
B|--9--9--9--9--9--9--9---8--7-7-7-7-7-7-7---8---9--9--9--9--9--9--9---8--7-7-7-7-7-7-7-7--|
G|-10-10-10-10-10-10-10---9--8-8-8-8-8-8-8---9--10-10-10-10-10-10-10---9--8-8-8-8-8-8-8-8--|
D|-11-11-11-11-11-11-11--10--9-9-9-9-9-9-9--10--11-11-11-11-11-11-11--10--9-9-9-9-9-9-9-9--|
A|-11-11-11-11-11-11-11--10--9-9-9-9-9-9-9--10--11-11-11-11-11-11-11--10--9-9-9-9-9-9-9-9--|
E|--9--9--9--9--9--9--9---8--7-7-7-7-7-7-7---8---9--9--9--9--9--9--9---8--7-7-7-7-7-7-7-7--|

Outro x3                    x1
e|--7-7--7-7---9--9--7-7--|-7-7---9--9--9--|
B|--9-9--7-7--11-11--7-7--|-7-7---9--9--9--|
G|--9-9--8-8--11-11--8-8--|-8-8--10-10-10--|
D|--9-9--9-9--11-11--9-9--|-9-9--11-11-11--|
A|--7-7--9-9---9--9--9-9--|-9-9--11-11-11--|
E|-------7-7---------7-7--|-7-7---9--9--9--|



--------------------------------------------------------------------------
8                                            Halloween
--------------------------------------------------------------------------

Riff 1:
e-----------------|
b-----------------|
g---8--8----------|
d---8--8----------|
a---6--6---5-6----|
e-----------------|

Riff 2:
e-----------------|
b-----------------|
g-----------------|
d-----------------|
a-----------------|
e----0-1--3-3-----|

Riff 3:
e-----------------|
b-----------------|
g--10-10----------|
d--10-10----------|
a---8--8---7-8----|
e-----------------|

--

----------------------------------------------------------------------------
9                                         Winnebago Warrior
----------------------------------------------------------------------------
Intro:

bass: g ----------- 11-11------|  (4x without guitar)
      d -------9-9- -------9-9-|
      a 11-11------ -----------|
      e ----------- -----------|

guitar:  B     C#     B     G#
         B   G#  (2x)
         G#  B   (4x)


         G#        B        G#
Roughin' it in the great outdoors
B          G#      B        G#
Guidebooks tell us where to go
B    C# B      G#  B  G#  B
Winnebago Warrior

Slow down traffic climbing hills
30 gallons to the mile
Honey, quick, the Polaroid

   C#            B
   Winnebago Warrior
   C#                B
   Brave as old John Wayne
   C#            B
   Winnebago Warrior
          D#
   A true yankee pioneer


Riff:
e -------- -------- -------- --------|
h -------- -------- -------- --------|
g 43431--- ---1---- 43431--- --------|    (2x)
d -------- ----4--- -------- --------|
a -------- -------- -------- --------|
e -------- -------- -------- --------|

G#  B   (4x)

Stop at Stuckey's for a meal
Blab all day on the CB
Winnebago Warrior

Littered campgrounds, folding chairs
Feed Doritos to the bears
Honey, quick, the Polaroid

   Winnebago Warrior...

   (Riff)

C#      D# C# B  C#   (2x)
G#      A# G# F# G#
F#  D#
G#      F# F F# F F#   (3x)
G#      F# G#

Kill some fish down by the creek
Hang their picture by the sink
Show your grandson who's the boss

Tie your two tote-goats to the fronts
U-haul trailer full of souvenirs
That you buy along the way

   Winnebago Warrior...

   Yankee pioneer

G#      F# F F# F F#   (3x)
G#
Yee-haa!
Juha Kivijarvi
juhkivij@utu.fi

---------------------------------------------------------------------------
10                                            Riot
---------------------------------------------------------------------------

IST PART OF INTRO 2X:
e|--------------------------------------------------------------------|
B|----------6-5-5-6-5-4-6-5---------6-5-5-6-5-4-6-4-------------------|
G|----2-4-5-------------------2-4-5-----------------------------------|
D|--------------------------------------------------------------------|
A|--------------------------------------------------------------------|
E|--------------------------------------------------------------------|

2ND PART OF INTRO 6X:
e|-------------------------|
B|-------------------------|
G|-----8----------------1--|
D|-------------------------|
A|-------------------------|
E|-------------------------|

VERSE 1 PRE-VERSE:
e|-----6--------------11-11-11-11-13-13-13-13-------------------------|
B|-----8--------------------------------------12-12-12-12-11-11-11-11-|
G|-----8--------------------------------------------------------------|
D|-----8--------------------------------------------------------------|
A|-----6--------------------------------------------------------------|
E|-----6--------------------------------------------------------------|

e|--------------------------------------------------------------------|
B|-12-12-12-12-13-13-13-13-14-14-14-14-15-15-15-15-16-16-16-16-17-17--|
G|--------------------------------------------------------------------|
D|--------------------------------------------------------------------|
A|--------------------------------------------------------------------|
E|--------------------------------------------------------------------|

e|--------------------------------------------------------------------|
B|-17-17-18-18-18-18-19-19-19-19-20-20-20-20-21-21-21-21-22-22-22-22--|
G|--------------------------------------------------------------------|
D|--------------------------------------------------------------------|
A|--------------------------------------------------------------------|
E|--------------------------------------------------------------------|

VERSE 2 PRE-VERSE:
e|---------------11-13-13-12------------------11-10--------------13-12-|
B|---10-10-12-12---------------12~~~~~-----12-------11-10-----12-------|
G|--------------------------------------12-----------------12----------|
D|---------------------------------------------------------------------|
A|---------------------------------------------------------------------|
E|---------------------------------------------------------------------|

e|-------------15-14-------------17-16--------------19-18-------------|
B|12-11-----14-------14-13----16-------16-15-----18-------18-17-------|
G|-------14----------------16-----------------18----------------------|
D|--------------------------------------------------------------------|
A|--------------------------------------------------------------------|
E|--------------------------------------------------------------------|

VERSE:
in the first verse right after he says "...watch them kicking peoples ass!"
start playing muted chords in this order. don't mute them in the second or
third verse
e|---6--------------------5---------------6---------------12----------|
B|---8--------------------5---------------8---------------14----------|
G|---8--------------------6---------------8---------------14----------|
D|---8--------------------7---------------8---------------14----------|
A|---6--------------------7---------------6---------------12----------|
E|---6--------------------5---------------6---------------12----------|

In the first verse right when he finishes saying "..aiming guns right at
your head" start playing the chords fully in that order. but in the second
verese start playing them fully right after he says "..slip away now dont
get caught!" same in the third right after he says "..their trigger fingers
want an excuse, now!" play them fully

CHORUS:
e|-----7-7-8--8--5-5-5-9---7-7-8--8--5-5-5-9---7-7-8--8--5-5-5-9------|
B|-----9-9-10-10-7-7-7-7---9-9-10-10-7-7-7-7---9-9-10-10-7-7-7-7------|
G|-----9-9-10-10-7-7-7-7---9-9-10-10-7-7-7-7---9-9-10-10-7-7-7-7------|
D|-----9-9-10-10-7-7-7-7---9-9-10-10-7-7-7-7---9-9-10-10-7-7-7-7------|
A|-----7-7-8--8--5-5-5-9---7-7-8--8--5-5-5-9---7-7-8--8--5-5-5-9------|
E|-----7-7-8--8--5-5-5-9---7-7-8--8--5-5-5-9---7-7-8--8--5-5-5-9------|

e|---1-1---2------1------|
B|---3-3---4------3------|
G|-1-3-3-1-4-1--1-3-1-1--|
D|-2-3-3-2-4-2--2-3-2-2--|
A|-2-1-1-2-2-2--2-1-2-2--|
E|---1-1---2------1------|

BRIDGE:
e|------1-------1-------1------1---------------------------------------|
B|------3-------3-------3------3---------------------------------------|
G|------3-------3-------3------3--------------------9-8----------------|
D|------3-------3-------3------3--------5-7-5-7-5-7-----7-10-7-10-7-10-|
A|------1-------1-------1------1---------------------------------------|
E|------1-------1-------1------1---------------------------------------|

e|-------------1-----2-3------1-----2-3-------------------------------|
B|-------------3-----4-3------3-----4-3-------12-12-11-11-11-11-11-11-|
G|----------1--3--1--4-4---1--3--1--4-4-------------------------------|
D|-6--------2--3--2--4-5---2--3--2--4-5-------------------------------|
A|----------2--1--2--2-5---2--1--2--2-5-------------------------------|
E|-------------1-----2-3------1-----2-3-------------------------------|


e|---------------------------------------------------------------------|
B|11-11-13-13-12-12-12-12-12-12-12-12-14-14-13-13-13-13-15-15-14-14-14-|
G|---------------------------------------------------------------------|
D|---------------------------------------------------------------------|
A|---------------------------------------------------------------------|
E|---------------------------------------------------------------------|

e|--------------------------------------------------------------------|
B|-14-16-16-15-15-15-15-17-17-16-16-16-16-18-18-17-17-17-17-19-19-18--|
G|--------------------------------------------------------------------|
D|--------------------------------------------------------------------|
A|--------------------------------------------------------------------|
E|--------------------------------------------------------------------|

e|--------------------------------------------------------------------|
B|18-18-18-20-20-19-19-19-19-21-21-20-20-20-20-22-22-21-21-21-21------|
G|--------------------------------------------------------------------|
D|--------------------------------------------------------------------|
A|--------------------------------------------------------------------|
E|--------------------------------------------------------------------|

e|--------------|
B|--------------|
G|---1--------1-|
D|----0-3-2-0---|
A|--------------|
E|--------------|

-----------------------------------------------------------------------------
11                                         Bleed For Me
-----------------------------------------------------------------------------

~ = tremolo pick


Intro: (let ring)

e------------------------------------------------------------|
b-------5-------5--5-5-------------------5------5--5-5-------|
g--8-8------------------8-----8--8--8-8-----------------8----|
d------------------------------------------------------------|
a------------------------------------------------------------|
e------------------------------------------------------------|

e----------6--7----11--12--------------------5--6----10--11-------------|
b--5--5-5---------------------11--12------5-------------------10--11----|
g-----------------------------------------------------------------------|
d-----------------------------------------------------------------------|
a-----------------------------------------------------------------------|
e-----------------------------------------------------------------------|

                 4x                              2x
e------------------ -----5--6~----6-5-6-5-6-5------ -----5----|
b------------------ ---5--------------------------- ---5------|
g------------------ ------------------------------- ----------|
d------------------ ------------------------------- ----------|
a------00-22-00---- ------------------------------- ----------|
e---00------------- ------------------------------- ----------|

                      3x
e----------------------- -------|
b----------------------- -------|
g---9-9-9-9--7-7-7-7---- ---9---|
d---9-9-9-9--7-7-7-7---- ---9---|
a---7-7-7-7--5-5-5-5---- ---7---|
e----------------------- -------|

-------------------------------------------------------------------------------
12                                          I Am the Owl
-------------------------------------------------------------------------------

CANT FIND! Only the bass tab email me if you want that posted
Email me at rbm90120@aol.com
-------------------------------------------------------------------------------
13                                            Dead End
-------------------------------------------------------------------------------

CANT FIND!
Email me at rbm90120@aol.com
-------------------------------------------------------------------------------
14                                          Moon Over Marin
-------------------------------------------------------------------------------

There might be some palm mutes in there and so chord strums may varey.

Intro x1
e|-------------|  
B|-33-2--33-2--|   
G|-22-2--22-2--|
D|-00-2--00-2--|
A|----0-----0--|
E|-------------|

Chorus x4
e|----9--------9----------|
B|-10---10-------10-------|
G|---------9--------9-11--|
D|------------------------|
A|------------------------|
E|------------------------|

Fill
e|--------------------------------------------------------------------------------------------------|
B|--------------------------------------------------------------------------------------------------|
G|--------------------------------------------------------------------------------------------------|
D|---------7-7-------------7-7--------------5-5-------------5-5-------------9-9------------9-9------|
A|-----7-7-----7-7-----7-7-----7-7------5-5-----5-5-----5-5-----5-5-----9-9----9-9-----9-9-----9-9--|
E|-5-5-------------5-5--------------3-3-------------3-3-------------7-7------------7-7--------------|

e|-10-10---9--9----5--|
B|-10-10---9--9----5--|
G|-11-11---10-10---6--|
D|-12-12---11-11---7--|
A|-12-12---11-11---7--|
E|-10-10---9--9----5--|

Verse x2
e|-5-------------------------------3-------------------------------7------------------------------|
B|-5-------------------------------3-------------------------------7------------------------------|
G|-6-------------------------------4-------------------------------8------------------------------|
D|-7------7-7-------------7-7------5------5-5-------------5-5------9------9-9------------9-9------|
A|-7--7-7-----7-7-----7-7-----7-7--5--5-5-----5-5-----5-5-----5-5--9--9-9----9-9-----9-9-----9-9--|
E|-5--------------5-5--------------3--------------3-3--------------7-------------7-7--------------|
		        2nd time only
e|-10-10---9--9----5--|-10-10-9--9--12--|
B|-10-10---9--9----5--|-10-10-9--9--12--|
G|-11-11---10-10---6--|-11-11-10-10-13--|
D|-12-12---11-11---7--|-12-12-11-11-14--|
A|-12-12---11-11---7--|-12-12-11-11-14--|
E|-10-10---9--9----5--|-10-10-9--9--12--|

Chorus x4
e|----9--------9----------|
B|-10---10-------10-------|
G|---------9--------9-11--|
D|------------------------|
A|------------------------|
E|------------------------|

Verse x2
e|-5-------------------------------3-------------------------------7------------------------------|
B|-5-------------------------------3-------------------------------7------------------------------|
G|-6-------------------------------4-------------------------------8------------------------------|
D|-7------7-7-------------7-7------5------5-5-------------5-5------9------9-9------------9-9------|
A|-7--7-7-----7-7-----7-7-----7-7--5--5-5-----5-5-----5-5-----5-5--9--9-9----9-9-----9-9-----9-9--|
E|-5--------------5-5--------------3--------------3-3--------------7-------------7-7--------------|
		        2nd time only
e|-10-10---9--9----5--|-10-10-9--9--12--|
B|-10-10---9--9----5--|-10-10-9--9--12--|
G|-11-11---10-10---6--|-11-11-10-10-13--|
D|-12-12---11-11---7--|-12-12-11-11-14--|
A|-12-12---11-11---7--|-12-12-11-11-14--|
E|-10-10---9--9----5--|-10-10-9--9--12--|

Chorus x4
e|----9--------9----------|
B|-10---10-------10-------|
G|---------9--------9-11--|
D|------------------------|
A|------------------------|
E|------------------------|

Intro x1
e|-------------|  
B|-33-2--33-2--|   
G|-22-2--22-2--|
D|-00-2--00-2--|
A|----0-----0--|
E|-------------|

Solo
e|-----------------------------------|
B|-----------------------------------|
G|-----------------------------------|
D|-----------------------------------|
A|---------5-4--------------5-4------|
E|-0-5-7-2-----5-2--0-5-7-2-----5-2--|

e|-------------------------------------------------------------------|
B|-------------------------------------------------------------------|
G|-------------------------------------------------------------------|
D|-------------------------------------------------------------------|
A|-----------------5-5-4-4--------------------------5-5-4-4----------|
E|-0-0-5-5-7-7-2-2---------5-5-2-2--0-0-5-5-7-7-2-2---------5-5-2-2--|

e|-------------------9-9-12-12-9-9--------------|
B|-10-10-10-10-10-10---------------12-12-10-10--|
G|----------------------------------------------|
D|----------------------------------------------|
A|----------------------------------------------|
E|----------------------------------------------|

e|-------------7-7-12-12-9-9--------------|
B|-8-8-8-8-8-8---------------12-12-10-10--|
G|----------------------------------------|
D|----------------------------------------|
A|----------------------------------------|
E|----------------------------------------|

e|-------------------9-9-12-12-9-9-----------10-10-9--9--5---10-10-9--9--12--|
B|-10-10-10-10-10-10---------------12-12-10--10-10-9--9--5---10-10-9--9--12--|
G|-------------------------------------------11-11-10-10-6---11-11-10-10-13--|
D|-------------------------------------------12-12-11-11-7---12-12-11-11-14--|
A|-------------------------------------------12-12-11-11-7---12-12-11-11-14--|
E|-------------------------------------------10-10-9--9--5---10-10-9--9--12--|

Verse x2
e|-5-------------------------------3-------------------------------7------------------------------|
B|-5-------------------------------3-------------------------------7------------------------------|
G|-6-------------------------------4-------------------------------8------------------------------|
D|-7------7-7-------------7-7------5------5-5-------------5-5------9------9-9------------9-9------|
A|-7--7-7-----7-7-----7-7-----7-7--5--5-5-----5-5-----5-5-----5-5--9--9-9----9-9-----9-9-----9-9--|
E|-5--------------5-5--------------3--------------3-3--------------7-------------7-7--------------|
		        2nd time only
e|-10-10---9--9----5--|-10-10-9--9--12--|
B|-10-10---9--9----5--|-10-10-9--9--12--|
G|-11-11---10-10---6--|-11-11-10-10-13--|
D|-12-12---11-11---7--|-12-12-11-11-14--|
A|-12-12---11-11---7--|-12-12-11-11-14--|
E|-10-10---9--9----5--|-10-10-9--9--12--|

Chorus x8
e|----9--------9----------|
B|-10---10-------10-------|
G|---------9--------9-11--|
D|------------------------|
A|------------------------|
E|------------------------|

Intro x3
e|-------------|  
B|-33-2--33-2--|   
G|-22-2--22-2--|
D|-00-2--00-2--|
A|----0-----0--|
E|-------------|
Добавлено: 25.03.2012
Другие материалы по этой песне:
  • Аккорды и текст

Страница создана 25.03.2012
http://primanota.ru/dead-kennedys/plastic-surgery-disasters-album-chords.htm
Привет, Гость.
Предлагаем пройти революционный курс по гитаре.
Подарок от PrimaNota.Ru, забирай!