PrimaNota.ru - самый крупный в мире бесплатный архив песенных текстов, аккордов, табулатур и нот


Dead Kennedys - Moral Majority - текст песни, таба, видео

Регистрация Запомнить меня
Войти через:  Facebook Google Twitter Vk Yandex Mail.ru

Dead Kennedys - Moral Majority - текст песни, таба, видео

Печатать
Просмотров: 127
Уроки эстрадного вокала в Санкт-Петербурге
Авторы музыки: Jello Biafra

Moral Majority - Dead Kennedys
------------------------------
(Jello Biafra,Klaus Flouride,East Bay Ray,D.H. Peligro)

Tabbed by: Jeff                  Legend:
Email: jam66upyrs@msn.com        : = Repeat
                                 x = Dead Note
Tuning: Standard
e B G D A E

Bass/Drum Intro
Vocals

0:57

"1,2,3!"

Verse: "You call yourself..."
                x3
e-3-3-6-6-5-x-4-||
B-3-3-6-6-5-x-4-||
G-4-4-7-7-6-x-5-||
D-5-5-8-8-7-x-6-||
A-5-5-8-8-7-x-6-||
E-3-3-6-6-5-x-4-||

Fill: "God must be dead..."
           x1
e-3--3-3-3-||
B-3--3-3-3-||
G-4--4-4-4-||
D-5--5-5-5-||
A-5--5-5-5-||
E-3--3-3-3-||

Verse: "You Say..."
                x3
e-3-3-6-6-5-x-4-||
B-3-3-6-6-5-x-4-||
G-4-4-7-7-6-x-5-||
D-5-5-8-8-7-x-6-||
A-5-5-8-8-7-x-6-||
E-3-3-6-6-5-x-4-||

Fill: "God must be dead..."
           x1
e-3--3-3-3-||
B-3--3-3-3-||
G-4--4-4-4-||
D-5--5-5-5-||
A-5--5-5-5-||
E-3--3-3-3-||


Bridge: "Milk your..." "...witch trials!"

e-5-5-8--8---6-6-5-5-: -6-6-5-5-6-6-7-: -6-6-5-5-||
B-5-5-8--8---8-8-7-7-: -8-8-7-7-8-8-9-: -6-6-5-5-||
G-6-6-9--9---8-8-7-7-: -8-8-7-7-8-8-9-: -7-7-6-6-||
D-7-7-10-10--8-8-7-7-: -8-8-7-7-8-8-9-: -8-8-7-7-||
A-7-7-10-10--6-6-5-5-: -6-6-5-5-6-6-7-: -8-8-7-7-||
E-5-5-8--8-----------: ---------------: -6-6-5-5-||


Verse: "Stodgy ayatollahs..."
                x3
e-3-3-6-6-5-x-4-||
B-3-3-6-6-5-x-4-||
G-4-4-7-7-6-x-5-||
D-5-5-8-8-7-x-6-||
A-5-5-8-8-7-x-6-||
E-3-3-6-6-5-x-4-||


Fill: "God must be dead..."
           x1
e-3--3-3-3-||
B-3--3-3-3-||
G-4--4-4-4-||
D-5--5-5-5-||
A-5--5-5-5-||
E-3--3-3-3-||


Chorus: "Blow it out..."   "...mind of my own?"

e-6-6-5-5-6-7-6-5--: -7-7-5-5-7-7-5-5-7-7-5-5--6-6-5-5-6-6-7--6-6-5-5-||
B-8-8-7-7-8-9-6-5--: -9-9-7-7-9-9-7-7-9-9-7-7--8-8-7-7-8-8-9--6-6-5-5-||
G-8-8-7-7-8-9-7-6--: -9-9-7-7-9-9-7-7-9-9-7-7--8-8-7-7-8-8-9--7-7-6-6-||
D-8-8-7-7-8-9-8-7--: -9-9-7-7-9-9-7-7-9-9-7-7--8-8-7-7-8-8-9--8-8-7-7-||
A-6-6-5-5-6-7-8-7--: -7-7-5-5-7-7-5-5-7-7-5-5--6-6-5-5-6-6-7--8-8-7-7-||
E-------------6-5--: -----------------------------------------6-6-5-5-||


Verse: "You don't want..."
                x3
e-3-3-6-6-5-x-4-||
B-3-3-6-6-5-x-4-||
G-4-4-7-7-6-x-5-||
D-5-5-8-8-7-x-6-||
A-5-5-8-8-7-x-6-||
E-3-3-6-6-5-x-4-||


Fill: "God must be dead..."
           x1
e-3--3-3-3-||
B-3--3-3-3-||
G-4--4-4-4-||
D-5--5-5-5-||
A-5--5-5-5-||
E-3--3-3-3-||

Bridge: "You're planning..."     "...turn in a fag."

e-5-5-8--8---6-6-5-5-: -6-6-5-5-6-6-7-: -6-7-6-7-: -6-7-7-7-||
B-5-5-8--8---8-8-7-7-: -8-8-7-7-8-8-9-: -8-9-8-9-: -8-9-9-9-||
G-6-6-9--9---8-8-7-7-: -8-8-7-7-8-8-9-: -8-9-8-9-: -8-9-9-9-||
D-7-7-10-10--8-8-7-7-: -8-8-7-7-8-8-9-: -8-9-8-9-: -8-9-9-9-||
A-7-7-10-10--6-6-5-5-: -6-6-5-5-6-6-7-: -6-7-6-7-: -6-7-7-7-||
E-5-5-8--8-----------: ---------------: ---------: ---------||


Outro Chorus: "Blow it out your asshole..."
                  x3
e-6-6-5-5-6-7-6-5--: 
B-8-8-7-7-8-9-6-5--: 
G-8-8-7-7-8-9-7-6--: 
D-8-8-7-7-8-9-8-7--: 
A-6-6-5-5-6-7-8-7--: 
E-------------6-5--: 

Outro: "Ram it up your cunt Anita!"
                       x1
e-5--5-5-5-||-5--5-5-5-||
B-5--5-5-5-||-5--5-5-5-||
G-6--6-6-6-||-6--6-6-6-||
D-7--7-7-7-||-7--7-7-7-||
A-7--7-7-7-||-7--7-7-7-||
E-5--5-5-5-||-5--5-5-5-||
           "You're alive!"


Добавлено: 20.03.2012
Другие материалы по этой песне:
  • Аккорды и текст

Страница создана 20.03.2012
http://primanota.ru/dead-kennedys/moral-majority-chords.htm
Привет, Гость.
Предлагаем пройти революционный курс по гитаре.
Подарок от PrimaNota.Ru, забирай!