PrimaNota.ru - самый крупный в мире бесплатный архив песенных текстов, аккордов, табулатур и нот


Dead Kennedys - Lie Detector - текст песни, таба, видео

Регистрация Запомнить меня
Войти через:  Facebook Google Twitter Vk Yandex Mail.ru

Dead Kennedys - Lie Detector - текст песни, таба, видео

Печатать
Просмотров: 114
------------------------------------------------------------------------------
Lie Detector - Dead Kennedys
Bedtime For Democracy
------------------------------------------------------------------------------
Tabbed by: Matthew Holmes
Email: holmzito@yahoo.com

Tuning:EADGBE

e|---------------------------------|
B|---------------------------------|
G|---------------------------------|
D|-6--9-6-2--5-2-4--7-4------------|
A|-4--7-4-0--3-0-2--5-2-6---5------|
E|----------------------4---3------|

e|-----------------------------------------------|
B|-----------------------------------------------|
G|-----------------------------------------------|
D|-----------------------------------------------|
A|--4-4-7-4-4-7-4-7-4-4-7-4-4-7-4-(play 4 times)-|
E|--2-2-5-2-2-5-2-5-2-2-5-2-2-5-2----------------|


e|-10-10-10-10-12----10-10-10-10-12----------------------------------------|
B|--8--8--8--8-10-----8--8--8--8-10----------------------------------------|
G|-------------------------------------------------------------------------|
D|-------------------------------------11-11-10-10-9-9-8-8-7-7-7-7-7-7-7-7-|
A|--------------------------------------9--9--8--8-7-7-6-6-5-5-5-5-5-5-5-5-|
E|-------------------------------------------------------------------------|

e|-----------------------------------------------|
B|-----------------------------------------------|
G|-----------------------------------------------|
D|-----------------------------------------------|
A|--4-4-7-4-4-7-4-7-4-4-7-4-4-7-4-(play 2 times)-|
E|--2-2-5-2-2-5-2-5-2-2-5-2-2-5-2----------------|

e|------------------------------------------------------|
B|-------11-11-11-11----11-11-11-9----9-9-9-10-11-12-13-|
G|-------11-11-11-11----11-11-11-9----9-9-9-10-11-12-13-|
D|-11----11-11-11-11----11-11-11-9----9-9-9-10-11-12-13-|
A|--9-----9--9--9--9-----9--9--9-7----7-7-7--8--9-10-11-|
E|------------------------------------------------------|

e|---------------------------------------------|
B|---------------------------------------------|
G|---------------------------------------------|
D|-14-14-11-11-14-14-11-11-14-14-11-11-14--14--|
A|-12-12--9--9-12-12--9--9-12-12--9--9-12--12--|
E|---------------------------------------------|

e|----------------------------------|
B|----------------------------------|
G|----------------------------------|
D|----------------------------------|
A|--4-4-7-4-4-7-4-7-4-4-7-4-4-7-4-7-|
E|--2-2-5-2-2-5-2-5-2-2-5-2-2-5-2-5-|


e|------------------------------------------------------|
B|-------11-11-11-11----11-11-11-9----9-9-9-10-11-12-13-|
G|-11----11-11-11-11----11-11-11-9----9-9-9-10-11-12-13-|
D|-11----11-11-11-11----11-11-11-9----9-9-9-10-11-12-13-|
A|--9-----9--9--9--9-----9--9--9-7----7-7-7--8--9-10-11-|
E|------------------------------------------------------|

e|--------------------------------------------|
B|--------------------------------------------|
G|--------------------------------------------|
D|-14-14-11-11-14-14-11-11-14-14-11-11-14--14-|
A|-12-12--9--9-12-12--9--9-12-12--9--9-12--12-|
E|--------------------------------------------|


e|---------------------------------|
B|---------------------------------|
G|---------------------------------|
D|---------------------------------|
A|-4-4-7-4-4-7-4-7-4-4-7-4-4-7-4-7-|
E|-2-2-5-2-2-5-2-5-2-2-5-2-2-5-2-5-|

e|-----------------------------------------------------------------------|
B|-----------------------------------------------------------------------|
G|-9-9-9-9-11-11-11-11-9-9-9-9-11-11-11-11-9-9-9-9-11-11-11-11--11---9---|
D|-9-9-9-9-11-11-11-11-9-9-9-9-11-11-11-11-9-9-9-9-11-11-11-11--11---9---|
A|-7-7-7-7--9--9--9--9-7-7-7-7--9--9--9--9-7-7-7-7--9--9--9--9---9---7---|
E|-----------------------------------------------------------------------|


e|-----------------------------------------------|
B|-----------------------------------------------|
G|-----------------------------------------------|
D|-----------------------------------------------|
A|--4-4-7-4-4-7-4-7-4-4-7-4-4-7-4-(play 2 times)-|
E|--2-2-5-2-2-5-2-5-2-2-5-2-2-5-2----------------|

e|------------------------------------------------------|
B|-------11-11-11-11----11-11-11-9----9-9-9-10-11-12-13-|
G|-------11-11-11-11----11-11-11-9----9-9-9-10-11-12-13-|
D|-11----11-11-11-11----11-11-11-9----9-9-9-10-11-12-13-|
A|--9-----9--9--9--9-----9--9--9-7----7-7-7--8--9-10-11-|
E|------------------------------------------------------|

e|---------------------------------------------|
B|---------------------------------------------|
G|---------------------------------------------|
D|-14-14-11-11-14-14-11-11-14-14-11-11-14--14--|
A|-12-12--9--9-12-12--9--9-12-12--9--9-12--12--|
E|---------------------------------------------|

e|----------------------------------|
B|----------------------------------|
G|----------------------------------|
D|----------------------------------|
A|--4-4-7-4-4-7-4-7-4-4-7-4-4-7-4-7-|
E|--2-2-5-2-2-5-2-5-2-2-5-2-2-5-2-5-|


e|------------------------------------------------------|
B|-------11-11-11-11----11-11-11-9----9-9-9-10-11-12-13-|
G|-11----11-11-11-11----11-11-11-9----9-9-9-10-11-12-13-|
D|-11----11-11-11-11----11-11-11-9----9-9-9-10-11-12-13-|
A|--9-----9--9--9--9-----9--9--9-7----7-7-7--8--9-10-11-|
E|------------------------------------------------------|

e|--------------------------------------------|
B|--------------------------------------------|
G|--------------------------------------------|
D|-14-14-11-11-14-14-11-11-14-14-11-11-14--14-|
A|-12-12--9--9-12-12--9--9-12-12--9--9-12--12-|
E|--------------------------------------------|


e|---------------------------------|
B|---------------------------------|
G|---------------------------------|
D|---------------------------------|
A|-4-4-7-4-4-7-4-7-4-4-7-4-4-7-4-7-|
E|-2-2-5-2-2-5-2-5-2-2-5-2-2-5-2-5-|

e|---------------------------------------------------------------------------|
B|---------------------------------------------------------------------------|
G|-9-9-9-9-11-11-11-11-9-9-9-9-11-11-11-11-9-9-9-9-11-11-11-11--11----9------|
D|-9-9-9-9-11-11-11-11-9-9-9-9-11-11-11-11-9-9-9-9-11-11-11-11--11----9------|
A|-7-7-7-7--9--9--9--9-7-7-7-7--9--9--9--9-7-7-7-7--9--9--9--9---9----7------|
E|---------------------------------------------------------------------------|

e|-----------------------------------------|
B|-----------------------------------------|
G|---------------------7-7-----------------|
D|-----------------4---7-7-----------------|
A|-4-4-7-4-4-7-4-7-4---7-7-4-4-7-4-4-7-4-7-|
E|-2-2-5-2-2-5-2-5-2---5-5-2-2-5-2-2-5-2-5-|

e|-------------------------------------------------|
B|-------------------------------------------------|
G|-------------------------------------------------|
D|-------------------------------------------------|
A|-4-4-7-4-4-7-4-7-4-4-7-4-4-7-4-7-4-4-7-4-4-7-4-7-|
E|-2-2-5-2-2-5-2-5-2-2-5-2-2-5-2-5-2-2-5-2-2-5-2-5-|

e|-10-10-10-10-12----10-10-10-10-12----------------------------------------|
B|--8--8--8--8-10-----8--8--8--8-10----------------------------------------|
G|-------------------------------------------------------------------------|
D|-------------------------------------11-11-10-10-9-9-8-8-7-7-7-7-7-7-7-7-|
A|--------------------------------------9--9--8--8-7-7-6-6-5-5-5-5-5-5-5-5-|
E|-------------------------------------------------------------------------|


e|-------------------------------------------------------|
B|-------------------------------------------------------|
G|-------------------------------------------------------|
D|-------------------------------------------------------|
A|-4-4-7-4-4-7-4-7-4-4-7-4----4-4-7-4-4-7-4-7-4-4-7-4----|
E|-2-2-5-2-2-5-2-5-2-2-5-2----2-2-5-2-2-5-2-5-2-2-5-2----|

e|------------------------------------------------5-5-5----------------|
B|------------------------------------------------5-5-5----------------|
G|------------------------------------------------6-6-6----3--3-3-1--5-|
D|-4---------------------4-------------------4----7-7-7----4--4-4-2--6-|
A|-4----7----4----2----6-4----7----4----2----4----7-7-7----4--4-4-2--6-|
E|-2----5----2----0----4-2----5----2----0----2----5-5-5----2--2-2-0--4-|

e|---------------------------------|
B|---------------------------------|
G|-3-3-3-3-6-6-6-6-3-3-3-3-1-1-1-1-|
D|-4-4-4-4-7-7-7-7-4-4-4-4-2-2-2-2-|
A|-4-4-4-4-7-7-7-7-4-4-4-4-2-2-2-2-|
E|-2-2-2-2-5-5-5-5-2-2-2-2-0-0-0-0-|

e|-----------------------------------------------------------|
B|-7--7--9--9------------------7--7-7-9--9-9-----------------|
G|-7--7--9--9------------------7--7-7-9--9-9-----------------|
D|-7--7--9--9------------------7--7-7-9--9-9-----------------|
A|-5--5--7--7--4-4-7-4-4-7-4-7-5--5-5-7--7-7-4-4-7-4-4-7-4-7-|
E|-------------2-2-5-2-2-5-2-5---------------2-2-5-2-2-5-2-5-|

e|-------------------------------------------------|
B|-7-7-7-7-9-9-9-9-7-7-7-7-9-9-9-9-7-7-7-7-9-9-9-9-|
G|-7-7-7-7-9-9-9-9-7-7-7-7-9-9-9-9-7-7-7-7-9-9-9-9-|
D|-7-7-7-7-9-9-9-9-7-7-7-7-9-9-9-9-7-7-7-7-9-9-9-9-|
A|-5-5-5-5-7-7-7-7-5-5-5-5-7-7-7-7-5-5-5-5-7-7-7-7-|
E|-------------------------------------------------|

e|-----------------------------------------------|
B|-----------------------------------------------|
G|-----------------------------------------------|
D|-----------------------------------------------|
A|--4-4-7-4-4-7-4-7-4-4-7-4-4-7-4-(play 2 times)-|
E|--2-2-5-2-2-5-2-5-2-2-5-2-2-5-2----------------|

e|--------------------------------|
B|-------11-----9-----10-11-12-13-|
G|-11----11-----9-----10-11-12-13-|
D|-11----11-----9-----10-11-12-13-|
A|--9-----9-----7------8--9-10-11-|
E|--------------------------------|

e|---------------------------------------------|
B|---------------------------------------------|
G|---------------------------------------------|
D|-14-14-11-11-14-14-11-11-14-14-11-11-14--14--|
A|-12-12--9--9-12-12--9--9-12-12--9--9-12--12--|
E|---------------------------------------------|

e|----------------------------------|
B|----------------------------------|
G|----------------------------------|
D|----------------------------------|
A|--4-4-7-4-4-7-4-7-4-4-7-4-4-7-4-7-|
E|--2-2-5-2-2-5-2-5-2-2-5-2-2-5-2-5-|


e|------------------------------------------------------|
B|-------11-11-11-11----11-11-11-9----9-9-9-10-11-12-13-|
G|-11----11-11-11-11----11-11-11-9----9-9-9-10-11-12-13-|
D|-11----11-11-11-11----11-11-11-9----9-9-9-10-11-12-13-|
A|--9-----9--9--9--9-----9--9--9-7----7-7-7--8--9-10-11-|
E|------------------------------------------------------|

e|--------------------------------------------|
B|--------------------------------------------|
G|--------------------------------------------|
D|-14-14-11-11-14-14-11-11-14-14-11-11-14--14-|
A|-12-12--9--9-12-12--9--9-12-12--9--9-12--12-|
E|--------------------------------------------|


e|---------------------------------|
B|---------------------------------|
G|---------------------------------|
D|---------------------------------|
A|-4-4-7-4-4-7-4-7-4-4-7-4-4-7-4-7-|
E|-2-2-5-2-2-5-2-5-2-2-5-2-2-5-2-5-|

e|--------------------------------------------------------------------------|
B|--------------------------------------------------------------------------|
G|-9-9-9-9-11-11-11-11-9-9-9-9-11-11-11-11-9-9-9-9-11-11-11-11--11---9------|
D|-9-9-9-9-11-11-11-11-9-9-9-9-11-11-11-11-9-9-9-9-11-11-11-11--11---9------|
A|-7-7-7-7--9--9--9--9-7-7-7-7--9--9--9--9-7-7-7-7--9--9--9--9---9---7------|
E|--------------------------------------------------------------------------|

e|--------------------------------------------------------------------------|
B|--------------------------------------------------------------------------|
G|-9-9-9-9-11-11-11-11-9-9-9-9-11-11-11-11-9-9-9-9-11-11-11-11--11---9------|
D|-9-9-9-9-11-11-11-11-9-9-9-9-11-11-11-11-9-9-9-9-11-11-11-11--11---9------|
A|-7-7-7-7--9--9--9--9-7-7-7-7--9--9--9--9-7-7-7-7--9--9--9--9---9---7------|
E|--------------------------------------------------------------------------|

e|------------------------------------------|
B|------------------------------------------|
G|-----------------11---9-------------------|
D|-----------------11---9-------------------|
A|-4-4-7-4-4-7-4-7--9---7---4-4-7-4-4-7-4-7-|
E|-2-2-5-2-2-5-2-5----------2-2-5-2-2-5-2-5-|

e|----------------------------------|
B|----------------------------------|
G|-9----11----9----11----9----11----|
D|-9----11----9----11----9----11----|
A|-7-----9----7-----9----7-----9----|
E|----------------------------------|

e|---------------------------------------------------------|
B|---------------------------------------------------------|
G|---------------------------------------------------------|
D|-------------------------------------------------4-4-7-4-|
A|-4-4-7-4-4-7-4-7-4-4-7-4-4-7-4-7-4-4-7-4-4-7-4-7-4-4-7-4-|
E|-2-2-5-2-2-5-2-5-2-2-5-2-2-5-2-5-2-2-5-2-2-5-2-5-2-2-5-2-|

| /  slide up
| \  slide down
| h  hammer-on
| p  pull-off
| ~  vibrato
| +  harmonic
| x  Mute note
==============================================================================
Добавлено: 03.06.2012
Другие материалы по этой песне:
  • Аккорды и текст

Страница создана 03.06.2012
http://primanota.ru/dead-kennedys/lie-detector-chords.htm
Привет, Гость.
Предлагаем пройти революционный курс по гитаре.
Подарок от PrimaNota.Ru, забирай!