PrimaNota.ru - самый крупный в мире бесплатный архив песенных текстов, аккордов, табулатур и нот


Dead Kennedys - Let - аккорды и текст, видео

Регистрация Запомнить меня
Войти через:  Facebook Google Twitter Vk Yandex Mail.ru

Dead Kennedys - Let - аккорды и текст, видео

Печатать
Просмотров: 105
Let
Dead Kennedys
I haven't got the solo in the middle of the song yet (still
working on it). Here is all I know.

Here is the original DK version:
[---------------------------------
---------------------------------
---------------------------------
-----3---------------3---5-3-----
-5-----5-3---0-3-5-----5-----5-3-
---------------------------------]
The bar chords during the song are just the B chords played
on the E, A and D strings:
[-----------------------------------
-----------------------------------
-----------------------------------
-7---7-7-7-7-7-7---5---5-5-5-5-5-5-
-5---5-5-5-5-5-5---3---3-3-3-3-3-3-
-5---5-5-5-5-5-5---3---3-3-3-3-3-3-]
then
[---------------------------------------
---------------------------------------
---------------------------------------
-7---7-7-7-7-7-7---5---5-5-5-5-5-5---9-
-5---5-5-5-5-5-5---3---3-3-3-3-3-3---7-
-5---5-5-5-5-5-5---3---3-3-3-3-3-3---7-]
                   ^I think this is right

In the L7 cover of this song (on the virus 100 album) this is
how they play it.

(except fast and thrashy with heaps of distortion)
[---------------------------------
---------------------------------
---------------------------------
---------------------------------
-----3---------------3---5-3-----
-5-----5-3---0-3-5-----5-----5-3-]
The bar chords during the song are just the E chords played
on the E, A and D strings:
[-----------------------------------
-----------------------------------
-----------------------------------
-7---7-7-7-7-7-7---5---5-5-5-5-5-5-
-7---7-7-7-7-7-7---5---5-5-5-5-5-5-
-5---5-5-5-5-5-5---3---3-3-3-3-3-3-]
then
[---------------------------------------
---------------------------------------
---------------------------------------
-7---7-7-7-7-7-7---5---5-5-5-5-5-5---9-
-7---7-7-7-7-7-7---5---5-5-5-5-5-5---9-
-5---5-5-5-5-5-5---3---3-3-3-3-3-3---7-]
                   ^I think this is right

-

The Landlord...

Verse:		[e-------------------------------------------------------
B-------------------------------------------------------
G--------------------4-4-2-2--------------------4-4-2-2-
D--4-4-4-2-2-2-4-4-4-4-4-2-2--4-4-4-2-2-2-4-4-4-4-4-2-2-
A--4-4-4-2-2-2-4-4-4-2-2-0-0--4-4-4-2-2-2-4-4-4-2-2-0-0-
E--2-2-2-0-0-0-2-2-2----------2-2-2-0-0-0-2-2-2---------

Chorus:		e------------------------------------------------------------
B------------------------------------------------------------
G----------------------------------------------------4-4-2-2-
D--9-9-9-9-9-9-9-9-7-7-7-7-7-7-7-7-4-4-4-2-2-2-4-4-4-4-4-2-2-
A--9-9-9-9-9-9-9-9-7-7-7-7-7-7-7-7-4-4-4-2-2-2-4-4-4-2-2-0-0-
E--7-7-7-7-7-7-7-7-5-5-5-5-5-5-5-5-2-2-2-0-0-0-2-2-2---------

e-------------------------------------------------------------
B-------------------------------------------------------------
G-------------------------------------------------------------
D--9-9-9-9-9-9-9-9-7-7-7-7-7-7-7-7-11-11-11-11-11-11-11-11-11-
A--9-9-9-9-9-9-9-9-7-7-7-7-7-7-7-7-11-11-11-11-11-11-11-11-11-
E--7-7-7-7-7-7-7-7-5-5-5-5-5-5-5-5--9--9--9--9--9--9--9--9--9-

e------------
B------------
G------------
D--11-11-11--
A--11-11-11--
E---9--9--9--]

after the first chorus the chorus ends like this below...

[e---------------------------------------------------------------------
B---------------------------------------------------------------------
G---------------------------------------------------------------------
D--11-11-11-11--9-7-11-11-11-11-9-7-11-11-11-11-9-7-4-4-4-2-2-2-4-4-4-
A--11-11-11-11--9-7-11-11-11-11-9-7-11-11-11-11-9-7-4-4-4-2-2-2-4-4-4- etc
E---9--9--9--9--7-5--9--9--9--9-7-5--9--9--9--9-7-5-2-2-2-0-0-0-2-2-2-]

solo chords...(well most of them)

[e----------------------------------------------------
B----------------------------------------------------
D----------------------------------------------------
G--9-9-9-7-7-7-9-9-9-7-7-7-9-9-9-7-7-7-9-9-9-9-9-9-9-
A--9-9-9-7-7-7-9-9-9-7-7-7-9-9-9-7-7-7-9-9-9-9-9-9-9-
E--7-7-7-5-5-5-7-7-7-5-5-5-7-7-7-5-5-5-7-7-7-7-7-7-7-

e--------------------------------------------------------------------
B--------------------------------------------------------------------
G--------------------------------------------------------------------
D--11-11-11-9-9-9-11-11-11-9-9-9-11-11-11-9-9-9-11-11-11-11-11-11-11-
A--11-11-11-9-9-9-11-11-11-9-9-9-11-11-11-9-9-9-11-11-11-11-11-11-11-
E---9--9--9-7-7-7--9--9--9-7-7-7--9--9--9-7-7-7--9--9--9--9--9--9--9-]

Than it does something oblivious to me... I don't know what
chords hes playing but he ends the solo with these chords...

[e--------------------------------------------------------------
B--------------------------------------------------------------
G--------------------------------------------------------------
D--11-11-11-11-9-9-8-8-11-11-11-11-9-9-8-8-11-11-11-11-9-9-8-8-
A--11-11-11-11-9-9-8-8-11-11-11-11-9-9-8-8-11-11-11-11-9-9-8-8-
E---9--9--9--9-7-7-6-6--9--9--9--9-7-7-6-6--9--9--9--9-7-7-6-6-]

-

Перевод:	Надо линчевать хозяина
(Слова - Биафра)

Хозяин квартиры навестил нас,
А внизу ревет дискотека
Он поднимает квартплату в два раза,
Власти объявили здание непригодным
И надо их теперь подкупить.

Но мы можем, ты знаешь, что мы можем
Но мы можем, ты знаешь, что мы можем
Давай линчуем хозяина

Я говорю ему: включите воду,
Я говорю ему: включите отоплаение
Он отвечает: ты только жалуешься
Он приходит и обыскивает вартиру
Когда меня дома нет

Но...

Давай линчуем хозяина
Давай линчуем хозяина

На кухне все съедает крыса
Тараканы бегают по ногам
включи плиту, она воняет, как Дахау
Пока дождь не протечет сквозь потолок.

Но мы можем, знаешь, мы можем
Мы можем, знаешь, мы можем
Давай линчуем хозяина } х3
Хозяина.
Добавлено: 21.10.2013
Другие материалы по этой песне:
  • Аккорды и текст

Страница создана 21.10.2013
http://primanota.ru/dead-kennedys/let-chords.htm
Привет, Гость.
Предлагаем пройти революционный курс по гитаре.
Подарок от PrimaNota.Ru, забирай!