PrimaNota.ru - самый крупный в мире бесплатный архив песенных текстов, аккордов, табулатур и нот


Dead Kennedys - Jesus Was A Terrorist - аккорды и текст, видео

Регистрация Запомнить меня
Войти через:  Facebook Google Twitter Vk Yandex Mail.ru

Dead Kennedys - Jesus Was A Terrorist - аккорды и текст, видео

Печатать
Просмотров: 109
Jesus Was A Terrorist
Dead Kennedys
Title: Jesus Was A Terrorist

I know that this is by nomeansno and jello biafra, but im putting it under 
dead kennedys
anyways cause no one will ever look at nomeansno tabs and this song deserves 
to be looked at
(not that the tab is particularily excellent, just the song)

Intro

e|----------------------------------------------------------------------------
b|----------------------------------------------------------------------------
g|-----------------------------------------------------------------end-with---
d|-5-5-5-5-5-5-5-5-1010101010101010-8-8-8-8-8-8-8-8-10101010-12-10----------5-
a|-5-5-5-5-5-5-5-5-1010101010101010-8-8-8-8-8-8-8-8-10101010-12-10----------5-
E|-3-3-3-3-3-3-3-3-8-8-8-8-8-8-8-8--6-6-6-6-6-6-6-6-8-8-8-8--10-8-----------3-

riff 1

e|----------------------------------------------------------------------------
b|----------------------------------------------------------------------------
g|-7779109-7779109------------------------------------------------------------
d|-7779109-7779109------------------------------------------------------------
a|-55578-7-55578-7------------------------------------------------------------
E|----------------------------------------------------------------------------

riff 2

e|----------------------------------------------------------------------------
b|----------------------------------------------------------------------------
g|-7779109-7779109-12121212-10101010-12121212-10101010------------------------
d|-7779109-7779109-12121212-10101010-12121212-10101010------------------------
a|-55578-7-55578-7-10101010-8-8-8-8--10101010-8-8-8-8-------------------------
E|----------------------------------------------------------------------------

riff 3

e|----------------------------------------------------------------------------
b|----------------------------------------------------------------------------
g|-14----12----10----14----7-/-14141414---------------------------------------
d|-14----12----10----14----7-/-14141414---------------------------------------
a|-12----10----8-----12----5-/-12121212---------------------------------------
E|----------------------------------------------------------------------------

riff 4

e|----------------------------------------------------------------------------
b|----------------------------------------------------------------------------
g|-14----12----10----14----7--------------------------------------------------
d|-14----12----10----14----7--go directly into main riff----------------------
a|-12----10----8-----12----5--------------------------------------------------
E|----------------------------------------------------------------------------

riff 5

e|----------------------------------------------------------------------------
b|----------------------------------------------------------------------------
g|-14--12--10--14--12--10--14--12--10--7-/-14141414---------------------------
d|-14--12--10--14--12--10--14--12--10--7-/-14141414---------------------------
a|-12--10--8---12--10--8---12--10--8---5-/-12121212---------------------------
E|----------------------------------------------------------------------------

Solo (just fool around with these four notes while tremolo picking)

e|-12--13--15--16-------------------------------------------------------------
b|----------------------------------------------------------------------------
g|----------------------------------------------------------------------------
d|----------------------------------------------------------------------------
a|----------------------------------------------------------------------------
E|----------------------------------------------------------------------------

riff 6

e|----------------------------------------------------------------------------
b|----------------------------------------------------------------------------
g|-13-13-13-11-11-11-13-13-13-7-7-7-------------------------------------------
d|-13-13-13-11-11-11-13-13-13-7-7-7-------------------------------------------
a|-11-11-11-9--9--9--11-11-11-5-5-5-------------------------------------------
E|----------------------------------------------------------------------------

riff 7

e|----------------------------------------------------------------------------
b|----------------------------------------------------------------------------
g|-13-13-13-11-11-11-13-13-13-15-15-15----------------------------------------
d|-13-13-13-11-11-11-13-13-13-15-15-15----------------------------------------
a|-11-11-11-9--9--9--11-11-11-13-13-13----------------------------------------
E|----------------------------------------------------------------------------

riff 8

e|----------------------------------------------------------------------------
b|----------------------------------------------------------------------------
g|-6----11---9----11----------------------------------------------------------
d|-6----11---9----11----------------------------------------------------------
a|-4----9----7----9-----------------------------------------------------------
E|----------------------------------------------------------------------------

riff 9

e|----------------------------------------------------------------------------
b|----------------------------------------------------------------------------
g|-15-15-15-13-13-13-11-11-11-------------------------------------------------
d|-15-15-15-13-13-13-11-11-11-------------------------------------------------
a|-13-13-13-11-11-11-9--9--9--------------------------------------------------
E|----------------------------------------------------------------------------

e|----------------------------------------------------------------------------
b|----------------------------------------------------------------------------
g|-15-13-11-8-----------------------------------------------------------------
d|-15-13-11-8-----------------------------------------------------------------
a|-13-11-9--6-----------------------------------------------------------------
E|----------------------------------------------------------------------------

outro

e|----------------------------------------------------------------------------
b|----------------------------------------------------------------------------
g|-8-8-8-6-6-6----------------------------------------------------------------
d|-8-8-8-6-6-6----------------------------------------------------------------
a|-6-6-6-4-4-4----------------------------------------------------------------
E|----------------------------------------------------------------------------

Intro   x 2 (second time with ending)
Riff 1  x 1
Riff 2  x 3
Riff 3  x 1
Riff 1  x 1
Riff 2  x 3
Riff 4  x 1
Riff 2  x 4
Riff 1  x 1
Riff 5  x 1
Solo
Riff 6  x 2
Riff 7  x 2
Riff 8  x 6
Riff 9  x 3
Riff 10 x 1
Outro   x 4

there you have it, if youve got any problems/issues with it email me at 
Caleb_Berry@hotmail.com



     
Добавлено: 08.06.2013
Другие материалы по этой песне:
  • Аккорды и текст

Страница создана 08.06.2013
http://primanota.ru/dead-kennedys/jesus-was-a-terrorist-chords.htm
Привет, Гость.
Предлагаем пройти революционный курс по гитаре.
Подарок от PrimaNota.Ru, забирай!