PrimaNota.ru - самый крупный в мире бесплатный архив песенных текстов, аккордов, табулатур и нот


Dead Kennedys - In God We Trust Ink (album) - таба, видео

Регистрация Запомнить меня
Войти через:  Facebook Google Twitter Vk Yandex Mail.ru

Dead Kennedys - In God We Trust Ink (album) - таба, видео

Печатать
Просмотров: 111
Tabbed By Rbm90120		In God We Trust, Ink
Last Updated:3/23/05                Dead Kennedys
======================================================================
This was just a EP 12 record, but then about 2 years later they put it
on the Plastic Surgery Disasters albulm(Check it out on Ultimate-Guitar.com).
I didn't put this on the Plastic Surgery Disasters because I thought it might
be better so you can see it more specicfic.Check this albulm out!The official
Dead Kennedys website is on www.deadkennedys.com.
======================================================================
1. Religious Vomit                      :Rambozo
2. Moral Majority                       :RUDY GUZMAN
3. Hyperactive Child 			:Jeff Munt
4. Kepone Factory 			:Mxtabs
5. Dog Bit                		:CANT FIND
6. Nazi Punks Fuck Off 			:Eric VALLAURI
7. We've Got a Bigger Problem Now 	:Smoking Frog II#
8. Rawhide  				:Mxtabs

-----------------------------------------------------------------------------
				Religous Vomit
-----------------------------------------------------------------------------

intro...
e-|--------------|---------------|
B-|--------------|---------------|
G-|---7---7---7--|---7---7---7---|
D-|-6-7-6-7-6-7--|-6-7-6-7-6-7-6-|
A-|-6-5-6-5-6-5--|-6-5-6-5-6-5-6-|
E-|-4---4---4----|-4---4---4---4-|

e-|--------------------------------------------|
B-|--------------------------------------------|
G-|-7-7--9-9-11-11-11-11-7-7--9-9-11-11-11-11--|
D-|-7-7--9-9-11-11-11-11-7-7--9-9-11-11-11-11--|
A-|-5-5--7-7--9--9--9--9-5-5--7-7--9--9--9--9--|
E-|--------------------------------------------|
all religions make me want to throw up ...etc

e-|--------------------------------------------|
B-|--------------------------------------------|
G-|-7-7--9-9-11-11-11-11-7-7--9-9-11-11-11-11--|
D-|-7-7--9-9-11-11-11-11-7-7--9-9-11-11-11-11--|
A-|-5-5--7-7--9--9--9--9-5-5--7-7--9--9--9--9--|
E-|--------------------------------------------|


e-|------------------------------------|-----------------------------------|
B-|------------------------------------|-----------------------------------|
G-|----------3-3-3-3-------------------|----------3-3-3-3------------------|
D-|-5-5-5-5--3-3-3-3--3-3-3-3-3-3-3-3--|-5-5-5-5--3-3-3-3--3-3-3-3-3-3-3-3-|
A-|-5-5-5-5--1-1-1-1--3-3-3-3-3-3-3-3--|-5-5-5-5--1-1-1-1--3-3-3-3-3-3-3-3-|
E-|-3-3-3-3-----------1-1-1-1-1-1-1-1--|-3-3-3-3-----------1-1-1-1-1-1-1-1-|
they all claim that they have the truth...etc

e-|-----------------------------------------------------------------
B-|-----------------------------------------------------------------
G-|----------3-3-3-3-----------5-5--3-3--2-2-2-2-------3-3----------
D-|-5-5-5-5--3-3-3-3--3-3-3-3--5-5--3-3--2-2-2-2--5-5--3-3--5-5-5-5-
A-|-5-5-5-5--1-1-1-1--3-3-3-3--3-3--1-1--0-0-0-0--5-5--1-1--5-5-5-5-
E-|-3-3-3-3-----------1-1-1-1---------------------3-3-------3-3-3-3-


e-|---------------------------------------
B-|---------------------------------------
G-|-5-5--3-3--2-2-2-2-------3-3-----------
D-|-5-5--3-3--2-2-2-2--5-5--3-3--5-5-5-5--
A-|-3-3--1-1--0-0-0-0--5-5--1-1--5-5-5-5--
E-|--------------------3-3-------3-3-3-3--

fill...

e-|--------------------
B-|--------------------
G-|------6-6-----------
D-|-4-4--6-6--9-9-9-9--
A-|-4-4--4-4--9-9-9-9--
E-|-2-2-------7-7-7-7--


e-|---------------------------------------------|
B-|---------------------------------------------|
G-|-7-7--9-9-11-11-11-11--7-7--9-9-11-11-11-11--|
D-|-7-7--9-9-11-11-11-11--7-7--9-9-11-11-11-11--|
A-|-5-5--7-7--9--9--9--9--5-5--7-7--9--9--9--9--|
E-|---------------------------------------------|
all religious make me wanna throw up...etc

e-|---------------------------------------------|
B-|---------------------------------------------|
G-|-7-7--9-9-11-11-11-11--7-7--9-9-11-11-11-11--|
D-|-7-7--9-9-11-11-11-11--7-7--9-9-11-11-11-11--|
A-|-5-5--7-7--9--9--9--9--5-5--7-7--9--9--9--9--|
E-|---------------------------------------------|


e-|------------------------------------------------------------------------|
B-|------------------------------------------------------------------------|
G-|-----------5-5-5-5------------5-5-5-5-----------5-5-5-5---------5-5-5-5-|
D-|-5-5--7-7--5-5-5-5--5-5--7-7--5-5-5-5--5-5--7-7-5-5-5-5-5-5-7-7-5-5-5-5-|
A-|-5-5--7-7--3-3-3-3--5-5--7-7--3-3-3-3--5-5--7-7-3-3-3-3-5-5-7-7-3-3-3-3-|
E-|-3-3--5-5-----------3-3--5-5-----------3-3--5-5---------3-3-5-5---------|
all religions suck...etc


e-|-------------------------------------------------------------------|
B-|-------------------------------------------------------------------|
G-|---------3-3-3-3--------------------------3-3-3-3------------------|
D-|-5-5-5-5-3-3-3-3-3-3-3-3-3-3-3-3--5-5-5-5-3-3-3-3-3-3-3-3-3-3-3-3--|
A-|-5-5-5-5-1-1-1-1-3-3-3-3-3-3-3-3--5-5-5-5-1-1-1-1-3-3-3-3-3-3-3-3--|
E-|-3-3-3-3---------1-1-1-1-1-1-1-1--3-3-3-3---------1-1-1-1-1-1-1-1--|
they all claim that they have the truth...etc

e-|--------------------------------------------------------------|
B-|--------------------------------------------------------------|
G-|---------3-3-3-3----------5-5-3-3-2-2-2-2-------3-3-----------|
D-|-5-5-5-5-3-3-3-3-3-3-3-3--5-5-3-3-2-2-2-2--5-5--3-3--5-5-5-5--|
A-|-5-5-5-5-1-1-1-1-3-3-3-3--3-3-1-1-0-0-0-0--5-5--1-1--5-5-5-5--|
E-|-3-3-3-3---------1-1-1-1-------------------3-3-------3-3-3-3--|


e-|---------------------------------------|
B-|---------------------------------------|
G-|--5-5--3-3-2-2-2-2-------3-3-----------|
D-|--5-5--3-3-2-2-2-2--5-5--3-3--5-5-5-5--|
A-|--3-3--1-1-0-0-0-0--5-5--1-1--5-5-5-5--|
E-|--------------------3-3-------3-3-3-3--|


e-|---------------------------------------------------------------|
B-|---------------------------------------------------------------|
G-|----6-----8--4-----6-----8--4-----6-----8--4--5-5-5-5--3-3-3-3-|
D-|-4--6--9--8--4--4--6--9--8--4--4--6--9--8--4--5-5-5-5--3-3-3-3-|
A-|-4--4--9--6--2--4--4--9--6--2--4--4--9--6--2--3-3-3-3--1-1-1-1-|
E-|-2-----7--------2-----7--------2-----7-------------------------|


e-|-------------------------------------------|
B-|-------------------------------------------|
G-|-7-7-9-9-11-11-11-11--7-7-9-9-11-11-11-11--|
D-|-7-7-9-9-11-11-11-11--7-7-9-9-11-11-11-11--|
A-|-5-5-7-7--9--9--9--9--5-5-7-7--9--9--9--9--|
E-|-------------------------------------------|
all religions make me wanna throw up..etc

e-|-------------------------------------------|
B-|-------------------------------------------|
G-|-7-7-9-9-11-11-11-11--7-7-9-9-11-11-11-11--|
D-|-7-7-9-9-11-11-11-11--7-7-9-9-11-11-11-11--|
A-|-5-5-7-7--9--9--9--9--5-5-7-7--9--9--9--9--|
E-|-------------------------------------------|

e-|-------------------------------------------------------------------|
B-|-------------------------------------------------------------------|
G-|---------5-5-5-5----------5-5-5-5---------5-5-5-5----------5-5-5-5-|
D-|-5-5-7-7-5-5-5-5--5-5-7-7-5-5-5-5-5-5-7-7-5-5-5-5--5-5-7-7-5-5-5-5-|
A-|-5-5-7-7-3-3-3-3--5-5-7-7-3-3-3-3-5-5-7-7-3-3-3-3--5-5-7-7-3-3-3-3-|
E-|-3-3-5-5----------3-3-5-5---------3-3-5-5----------3-3-5-5---------|
all religions suck...etc

outro...
e-|----------------------------------------------------------------------|
B-|----------------------------------------------------------------------|
G-|----------------------------------------------------------------------|
D-|-5-5-8-8--5-5-8-8--5-5-8-8--5-5-8-8--5-5-8-8--5-5-8-8--5-5-8-8--5-5-8-|
A-|-5-5-8-8--5-5-8-8--5-5-8-8--5-5-8-8--5-5-8-8--5-5-8-8--5-5-8-8--5-5-8-|
E-|-3-3-6-6--3-3-6-6--3-3-6-6--3-3-6-6--3-3-6-6--3-3-6-6--3-3-6-6--3-3-6-|
they make me sick..etc


transcribed by rambozo at jjm@nucleus.com

-----------------------------------------------------------------------------
				Moral Majority
-----------------------------------------------------------------------------


e--3-------3------2---3--| 
B--3-------3------3---3--| 
G--0-------0------2---0--| 
D--0-------0------0---0--| 
A--2-------2----------2--| 
E--3-------3----------3--|

e--3-------3-------3-----2---3--| 
B--3-------3-------3-----3---3--| 
G--0-------0-------0-----2---0--| 
D--0-------0-------0-----0---0--| 
A--2-------2-------2---------2--| 
E--3-------3-------3---------3--|

verse
repeat
e--3-------3-------3-----2---3--| 
B--3-------3-------3-----3---3--| 
G--0-------0-------0-----2---0--| 
D--0-------0-------0-----0---0--| 
A--2-------2-------2---------2--| 
E--3-------3-------3---------3--|

2 times
e---2---3--| 
B---3---3--| 
G---2---0--| 
D---0---0--| 
A-------2--| 
E-------3--|


e--3------------------------3--| 
B--3------------------------3--| 
G--0-------0-------5---7----0--| 
D--0-------0-------5---7----0--| 
A--2-------2-------3---5----2--| 
E--3-------3----------------3--|

fdbk
moral majority!! 1 2 3

3 times
e--------------------| 
B--------------------| 
G--------------------| 
D-5-5--8-8--7--6-6-6-| 
A-5-5--8-8--7--6-6-6-| 
E-3-3--6-6--5--4-4-4-|


e--------------| 
B--------------| 
G--------------| 
D-5-----5-5-5--| 
A-5-----5-5-5--| 
E-3-----3-3-3--|

3 times
e--------------------| 
B--------------------| 
G--------------------| 
D-5-5--8-8--7--6-6-6-| 
A-5-5--8-8--7--6-6-6-| 
E-3-3--6-6--5--4-4-4-|


e--------------| 
B--------------| 
G--------------| 
D-5-----5-5-5--| 
A-5-----5-5-5--| 
E-3-----3-3-3--|

3 times
e----------------------------| 
B----------------------------| 
G----------------------------| 
D--7-7--10-12--13--12-12-12--| 
A--7-7--10-12--13--12-12-12--| 
E--5-5--8--10--11--10-10-10--|

2 times
e--------------------------| 
B--------------------------| 
G--------------------------| 
D-12-13-12-13-12--10-10-10-| 
A-12-13-12-13-12--10-10-10-| 
E-10-11-10-11-10--8--8--8--|  

3 times
e--------------------| 
B--------------------| 
G--------------------| 
D-5-5--8-8--7--6-6-6-| 
A-5-5--8-8--7--6-6-6-| 
E-3-3--6-6--5--4-4-4-|

e---------------| 
B---------------| 
G---------------| 
D-5--5---5-5-5--| 
A-5--5---5-5-5--| 
E-3--3---3-3-3--|

3 times
e----------------------------| 
B----------------------------| 
G----------------------------| 
D--7-7--10-12--13--12-12-12--| 
A--7-7--10-12--13--12-12-12--| 
E--5-5--8--10--11--10-10-10--|


e--------------------------| 
B--------------------------| 
G--------------------------| 
D-12-13-12-13-12--10-10-10-| 
A-12-13-12-13-12--10-10-10-| 
E-10-11-10-11-10--8--8--8--|

e-------------------------------------------------------------------------| 
B-------------------------------------------------------------------------| 
G-------------------------------------------------------------------------| 
D-------------------------------------------------------------------------| 
A-14-14-14-12-12-12--14-14-14-12-12-12--14-14-14-12-12-12--14-12-14-12-14-| 
E-12-12-12-10-10-10--12-12-12-10-10-10--12-12-12-10-10-10--12-10-12-10-12-|

3 times
e--------------------| 
B--------------------| 
G--------------------| 
D-5-5--8-8--7--6-6-6-| 
A-5-5--8-8--7--6-6-6-| 
E-3-3--6-6--5--4-4-4-|

e---------------| 
B---------------| 
G---------------| 
D-5--5---5-5-5--| 
A-5--5---5-5-5--| 
E-3--3---3-3-3--|

3 times
e----------------------------| 
B----------------------------| 
G----------------------------| 
D--7-7--10-12--13--12-12-12--| 
A--7-7--10-12--13--12-12-12--| 
E--5-5--8--10--11--10-10-10--|

 2 times
e--------------------------| 
B--------------------------| 
G--------------------------| 
D-12-13-12-13-12--10-10-10-| 
A-12-13-12-13-12--10-10-10-| 
E-10-11-10-11-10--8--8--8--|

e-------------------------------------------------------------------------| 
B-------------------------------------------------------------------------| 
G-------------------------------------------------------------------------| 
D-------------------------------------------------------------------------| 
A-14-14-14-12-12-12--14-14-14-12-12-12--14-14-14-12-12-12--14-12-14-12-14-| 
E-12-12-12-10-10-10--12-12-12-10-10-10--12-12-12-10-10-10--12-10-12-10-12-|

 repeat
e--------------------------| 
B--------------------------| 
G--------------------------| 
D-12-13-12-13-12--10-10-10-| 
A-12-13-12-13-12--10-10-10-| 
E-10-11-10-11-10--8--8--8--|

2 times
e---------------| 
B---------------| 
G--6--6--6-6-6--| 
D--7--7--7-7-7--| 
A--7--7--7-7-7--| 
E--5--5--5-5-5--|


--------------------------------------------------------------------------
Hyperactive Child
--------------------------------------------------------------------------

verse:

e-|--------------------------------------------
B-|--------------------------------------------
G-|--------------------8---------------------8-
D-|-10-10-8-8-10-10-10-8--10-10-8-8-10-10-10-8-
A-|-10-10-8-8-10-10-10-6--10-10-8-8-10-10-10-6-
E-|--8--8-6-6--8--8--8-----8--8-6-6--8--8--8---
repeat that over and over again for the verses..

chorus:

e-|--------------------------------------------------------|
B-|--------------------------------------------------------|
G-|---------8-7-5---------8-7-5---------8-7-5--8-7-5-8-7---|
D-|-7-7-5-7-8-7-5-7-7-5-7-8-7-5-7-7-5-7-8-7-5--8-7-5-8-7-7-|
A-|-7-7-5-7-6-5-3-7-7-5-7-6-5-3-7-7-5-7-6-5-3--6-5-3-6-5-7-|
E-|-5-5-3-5-------5-5-3-5-------5-5-3-5------------------5-|


-----------------------------------------------------------------------------
				Kepone Factory
-----------------------------------------------------------------------------

INTRO: 2x

E= 5--3--5-------8----3
B= 5--3--5-------8----3
G= 6--4--6-------9----4
D= 7--5--7-------10---5
A= 7--5--7-------10---5
E= 5--3--5--0----8----3

VERSE:  find the rhythm on how it's played (it's played somewhat fast)
E= 5--3--8---7
B= 5--3--8---7
G= 6--4--9---8
D= 7--5--10--9
A= 7--5--10--9
E= 5--3--8---7

CHORUS:
E=5--5----------------
B=5--5------------3---
G=6--6------------5---
D=7--7------------5--0    
A=7--7------------3--0
E=5--5--0-3-0---------
 
BRIDGE (or interlude, depends on how you look at it):
E=-------------------------------------------------------------
B=-5--3----------10---8-----------12-----------7--9---12--7--9-
G=-7--5----------12--10-----------14-----------9--11--14--9--11
D=-7--5-{4x}-12--10 {3x)----------14-{4x}------9--11--14--9--11
A=-5--3----------10--8------------12-----------7--9---12--7--9-
E=-------------------------------------------------------------

VERSE:

CHORUS:



-----------------------------------------------------------------------------
				Dog Bite
-----------------------------------------------------------------------------

                              can't find Email me @ Rbm90120@aol.com

-----------------------------------------------------------------------------
				Nazi Punks Fuck off
-----------------------------------------------------------------------------

Here's another TAB taken from the September 1991 issue of Guitar for Musician.
It's the original DK version, not the one from virus 100 album.

It goes really fast !!!!!


Tempo: 320


Repeat x2:

   Db                             Bb
e|------------------------|------------------------|
B|------------------------|------------------------|
G|-10----10----10----10---|-10----7--7--------7--5-|
D|-11----11----11----11---|-11----8--8--------8--6-|
A|-11----11----11----11---|-11----8--8--------8--6-|
E|-9-----9-----9-----9----|-9-----6--6--------6--4-|
   ^  .  ^  .  ^  .  ^  .   ^  .  ^  .  ^  .  ^  .
                                              (sl) 
   Ab                             Bb
e|------------------------|------------------------|
B|------------------------|------------------------|
G|-5-----5-----5-----5----|-5-----7--7--------7----|
D|-6-----6-----6-----6----|-6-----8--8--------8----|
A|-6-----6-----6-----6----|-6-----8--8--------8----|
E|-4-----4-----4-----4----|-4-----6--6--------6----|
   ^  .  ^  .  ^  .  ^  .   ^  .  ^  .  ^  .  ^  .  



Then repeat x2:

   Ab    Bb                 Ab    Bb
e|------------------------|------------------------|
B|------------------------|------------------------|
G|-5-----7--7--------x----|-5-----7--7--------x----|
D|-6-----8--8--------x----|-6-----8--8--------x----|
A|-6-----8--8--------x----|-6-----8--8--------x----|
E|-4-----6--6--------x----|-4-----6--6--------x----|
   ^  .  ^  .  ^  .  ^  .   ^  .  ^  .  ^  .  ^  .  

   Ab    Bb                 Db
e|------------------------|------------------------|
B|------------------------|------------------------|
G|-5-----7--7--------x----|-10----10-10-10----10---|
D|-6-----8--8--------x----|-11----11-11-11----11---|
A|-6-----8--8--------x----|-11----11-11-11----11---|
E|-4-----6--6--------x----|-9-----9--9--9-----9----|
   ^  .  ^  .  ^  .  ^  .   ^  .  ^  .  ^  .  ^  .  



Lyrics

Punk ain't no religious cult
Punk means thinking for yourself
You're not hardcores cos youspike your hair
When a jock still lives inside your head


Chorus:

Nazi punks
Nazi punks
Nazi punks - Fuck Off !

Nazi punks
Nazi punks
Nazi punks - Fuck Off !


If you've come to fight, get outa here
You ain't better than the bouncers
We ain't trying to be police
When you ape the cops it ain't anarchy


Chorus


Ten guys jump a man, what a man
You fight each other, the police state wins
Stab you backs when you trash our halls
Trash a bank if you've got real balls

You still think swatiskas look cool
The real nazis run your schools
They're coaches, businessmen and cops
In a real fourth reich you'll be the first to go


Chorus


You'll be the first to go
You'll be the first to go
You'll be the first to go
Unless you think


-----------------------------------------------------------------------------
			We've Got a Bigger Problem Now
-----------------------------------------------------------------------------

For more info contact   www.deadkennedys.com

Tabbed by: Smoking Frog II#
Thanks to Sound Torturer for part of the intro

Date: 12/7/03
This tab is not actually on UG, so I thought someone should do it, 
and why not me!

I recommend you to hear the song a few times through before 
you play this for correct timings etc.

Standard tuning, although you may want to drop d the strings 
(e becomes d, a becomes g...)


INTRO: (clean)
e|----------------------------------------------------------
b|---------------------------------------- 5 7 9 7 9 7 ----
g|9 8 9 8 6 - 6--------------------------------------- 9 8 9 
d|--------- 9 - 9 8 6/8 4/6 8/6 9 8 6 8/11------------------
a|----------------------------------------------------------
e|----------------------------------------------------------
*play this through once*

(clean)
e: 5 5 5 - 6 6 6 - 8 8 8
b: 6 6 6 - 7 7 7 - 9 9 9
g: 7 7 7 - 8 8 8 - 101010
d: 7 7 7 - 8 8 8 - 101010
a: 5 5 5 - 6 6 6 - 8 8 8
e: 5 5 5 - 6 6 6 - 8 8 8
...Dmin....D#min...Fmin
*play this until the 1st verse starts.*


1st VERSE: (clean)
e: - 5 - - 6 - - 8 -
b: - 6 - - 7 - - 9 -
g: - 7 - - 8 - -10 -
d: - 7 - - 8 - -10 -
a: - 5 - - 6 - - 8 -
e: - 5 - - 6 - - 8 -
...Dmin....D#min...Fmin

Now strum the same pattern *play two times*

e: - 5 - - 6 - - 5 - - 3 - - 0
b: - 6 - - 7 - - 6 - - 4 - - 1
g: - 7 - - 7 - - 7 - - 5 - - 2
d: - 7 - - 8 - - 7 - - 5 - - 2
a: - 5 - - 6 - - 5 - - 3 - - 0
e: - 5 - - 6 - - 5 - - 3 - - 0
...Dmin..D#min..Dmin..Cmin..Amin *play once*

Strumming.

Repeat this sequence for the entire verse.


1st CHORUS: (clean)

e: - 55 - 55- 55555555 - 8888888
b: - 66 - 66- 66666666 - 6666666
g: - 77 - 77- 77777777 - 8888888
d: - 77 - 77- 77777777 - 5555555
a: - 55 - 55- 55555555 - 5555555
e: - 55 - 55- 55555555 - 5555555

Repeat this once for the entire chorus.


2nd VERSE: (dirty)
repeat the 1st verse sequence


2nd CHORUS: (dirty)
repeat the chorus pattern

Pre-bridge: (clean)
just play the verse pattern a few times again


BRIDGE: (dirty)
e: - 55555555 - 3333- 0000
b: - 66666666 - 4444- 1111
g: - 77777777 - 5555- 2222
d: - 77777777 - 5555- 2222
a: - 55555555 - 3333- 0000
e: - 55555555 - 3333- 0000

play this 12 times, speeding up the pattern 
every 4 times.

After this, repeat the chorus for a final time.


OUTRO: (dirty)
In my opinion, the best and most classic outro ever. 
Simple, yet brilliant.

e: 5 5555 555 3 333 8 8 8 8 8 8
b: 6 6666 666 4 444 9 9 9 9 9 9
g: 7 7777 777 5 555 101010101010
d: 7 7777 777 5 555 101010101010
a: 5 5555 555 3 333 8 8 8 8 8 8
e: 5 5555 555 3 333 8 8 8 8 8 8
*play this three times*

e: 5 5555 5555
b: 6 6666 6666
g: 7 7777 7777
d: 7 7777 7777
a: 5 5555 5555
e: 5 5555 5555
*play this once*

LYRICS:

Intro:
Last call for alcohol. 
Last call for your freedom of speech. 
Drink up. Happy hour is now enforced by law. 
Don't forget our house special, 
it's called a Trickie Dickie Screwdriver. 
It's got one part Jack Daniels, 
two parts purple Kool-Aid, 
and a jigger of formaldehyde 
from the jar with Hitler's brain in it 
we got in the back storeroom. 
Happy trails to you. Happy trails to you. 

1st verse:

I am Emperor Ronald Reagan
Born again with fascist cravings
Still, you made me president 
Human rights will soon go 'way
I am now your Shah today
Now I command all of you
Now you're going to pray in school
I'll make sure they're Christian too 

(chorus)
California Über Alles
California ÜÜÜÜber Alles
Über Alles California
Über Alles Caaaaalifornia

(2nd verse)
Ku Klux Klan will control you
Still you think it's natural
Nigger knockin' for the master race 
Still you wear the happy face 
You closed your eyes, can't happen here
Alexander Haig is near
Vietnam won't come back you say
Join the army or you will pay 

(chorus)
California Über Alles
California ÜÜÜÜber Alles
Über Alles California
Über Alles Caaaaalifornia

(pre-bridge)
Yeah, that's it. Just relax. 
Have another drink, few more pretzels, 
little more MSG. 
Turn on those Dallas Cowboys on your TV. 
Lock your doors. Close your mind. 
It's time for the two-minute warning. 

(bridge)
Welcome to 1984
Are you ready for the third world war?!?
You too will meet the secret police
They'll draft you and they'll jail your niece 

You'll go quietly to boot camp
They'll shoot you dead, make you a man
Don't you worry, it's for a cause
Feeding global corporations' claws 

Die on our brand new poison gas
El Salvador or Afghanistan
Making money for President Reagan
Making money for President Reagan
And all the friends of President Reagan 

(chorus)
California Über Alles
California ÜÜÜÜber Alles
Über Alles California
Über Alles Caaaaalifornia


-----------------------------------------------------------------------------
				Rawhide
-----------------------------------------------------------------------------

Intro:
e|-------------------------------------------------------------------|
B|-----------------------------------------------------7-9---7-9-----|
G|-----------------------------------------------------7-9---7-9--9/7|
D|--------------------------------------------------2--7-9---7-9--9/7|
A|---22222-5-2-5-2---22222-5-2-5-2----22222-5-2-5-2-2--5-7---5-7--7/5|
E|3p0-------------3p0--------------3p0--------------0----------------|

Verse:
e|--------------------------------------------------------------------|
B|--------------------------------------------------------------------|
G|-----------------999-12-9-----------------121212-9-12---------------|
D|-----------------999-12-9-----------------121212-9-12---------------|
A|-----------------777-10-7-----------------101010-7-10---------------|
E|0h3-0h3-0h3-0h3----------0h3-0h3-0h3-0h3-------------0h3-0h3-0h3-0h3|

e|----------------------------3---------------------------------------|
B|----------------------------3---------------------------------------|
G|----------------------------4---------------------------------------|
D|----------------------------5---------------------------------------|
A|----------------------------5---------------------------------------|
E|0h3-0h3-0h3-0h3-0h3-0h3-0h3-3---------------------------------------|

Chorus(x1 first time, x2 second time)         (second time ending)
e|----------------------------|----------------------------------|
B|----------------------------|----------------------------------|
G|-999999--7777--11--44-66-5--|--------777------55-66-4----------|
D|-999999--7777--22--44-66-5--|-22222--777--22--55-66-4----------|
A|-777777--5555--22--22-44-3--|-22222--555--22--33-44-2----------|
E|---------------00-----------|-00000-------00-------------------|

Bridge:
e|---------------------------------------------------------------|
B|---------------------------------------------------------------|
G|---------------------------4444-7777---------------------------|
D|----------------------5555-4444-7777---------------------------|
A|------2222----2---2---5555-2222-5555---------------------------|
E|-00333----0-00-0-3----3333-------------------------------------|

Outro (intro riff x4, then -)
e|----------------------------------------------------------------|
B|---4444-7-4-7-4---4444-7-4-7-4---4444-7-4-7-4--9~---------------|
G|-5--------------5--------------5---------------9~---------------|
D|--7--------------7--------------7--------------9~---------------|
A|-----------------------------------------------7~---------------|
E|----------------------------------------------------------------|
Добавлено: 15.07.2012
Другие материалы по этой песне:
  • Аккорды и текст

Страница создана 15.07.2012
http://primanota.ru/dead-kennedys/in-god-we-trust-ink-album-chords.htm
Привет, Гость.
Предлагаем пройти революционный курс по гитаре.
Подарок от PrimaNota.Ru, забирай!