PrimaNota.ru - самый крупный в мире бесплатный архив песенных текстов, аккордов, табулатур и нот


Dead Kennedys - Ill in The Head - текст песни, бас-таба, видео

Регистрация Запомнить меня
Войти через:  Facebook Google Twitter Vk Yandex Mail.ru

Dead Kennedys - Ill in The Head - текст песни, бас-таба, видео

Печатать
Просмотров: 114
Авторы музыки: 6025

Intro
-------------------------------------------------------------------|
-------------------------------------------------------------------|
-10-9-8-9-8-7-6-7-6-5-4-5------------------------------------------|
--------------------------9-8-7-8-7-6-5-6-4--4--4--4--4--4--4--4---|

Bridge
--------------------------------------3-4-5---------------|
--------------------------------2-3-4---------------------|
-3--3-3--3-3-3-4--3-3--3-3-3--3-------------4--3-3--3-3-3-|
----------------------------------------------------------|

Verse A
-------------------------|
----2--------------------|
-3---3--3----------------|
------4--4-1--2-2--2-2-2-|

Verse B
----------3h5------------3h5--|
----4--6-----------4--6-------|
-3-----------3--5-----------3-|
------------------------------|

Verse C
-10---------10h11-8--10---------10h11-8-|
-----11--9---------------11--9----------|
----------------------------------------|
----------------------------------------|

Verse D
---------3h5---10---------10h11-8-|
---4--6------------11--9----------|
-3-----------3--------------------|
----------------------------------|

Verse E
10---------10h11-8---------3h5-----|
----11--9-------------4--6
Добавлено: 20.08.2013
Другие материалы по этой песне:

Страница создана 06.06.2012
http://primanota.ru/dead-kennedys/ill-in-the-head-chords.htm
Привет, Гость.
Предлагаем пройти революционный курс по гитаре.
Подарок от PrimaNota.Ru, забирай!