PrimaNota.ru - самый крупный в мире бесплатный архив песенных текстов, аккордов, табулатур и нот


Dead Kennedys - Hop With The Jet Set - текст песни, бас-таба, видео

Регистрация Запомнить меня
Войти через:  Facebook Google Twitter Vk Yandex Mail.ru

Dead Kennedys - Hop With The Jet Set - текст песни, бас-таба, видео

Печатать
Просмотров: 31
Dead Kennedys - Hop With the Jet Set, Off The Album Bedtime for Democracy In 1986 

Intro
G|---------------------------------------------------|
D|----5------5---------------------------------------|
A|------------------33----3----------33----3---------|
E|-5------5-------5----5----3-333--5----5-----3-333--|

G|---------------------------------------------------|
D|---------------------------------------------------|
A|---------------------------------------------------|
E|5--3--0--5--3--0--5--3--0---3----------------------|

Verses 1 & 2
G|--------------------------------------------------------------|
D|--------------------------------------------------------------|
A|--------------------------------------------------------------|
E|5--3--0--5--3--0--5--3--0--5--3--0--5--3--0--5--3--0--5--3--0-|

G|--------------------------------------------------------------|
D|--------------------------------------------------------------|
A|5--3----5--3---5--3----6-5-6----------------------------------|
E|-----5-------5------5---------5--3--0--5--3--0--5--3--0-------|

  play 2X's
G|------------2----------------------------------------|
D|--2-2-2--5-----5--------3-5-3------------------------|
A|------------------5-5-5------------------------------| 
E|-----------------------------------------------------|

play the main line 
then verses 1 & 2 

1st Fast part 

G|-------------------------------------------------------------|
D|-----------------5-------5--3----------------------5-----5-3-|
A|333-000-333-000-----555-------0-2--333-000-333-000---555-----|
E|-------------------------------------------------------------|


G|--------------------------------------------------------------------|
D|---5-----5----5-----------------------------------------------------|
A|-------------------5--3---5-----------------------------------------|
E|5-----5----5------------5-------------------------------------------|

Verse 3
G|------------------------------------------------------|
D|------------------------------------------------------|
A|------------------------------------------------------|
E|7--5--0--7--5--0--7--5--0--7--5--0--7--5--0--7--5--0--|

G|------------------------------------------------------------|
D|------------------------------------------------------------|
A|--7--5-----7--5----7--5----8-7-8----------------------------|
E|--------7-------7-------7---------7--5--0--7--5--0--7--5--0-|

Play 2X's
G|-------3--5--3-----------3-----------------------------|
D|5-5-5----------3-3-3--6-----6--------------------------|
A|-------------------------------------------------------|
E|-------------------------------------------------------|
  Play 2X's
G|-------------------------------------------------------|
D|-------------------------------------------------------|
A|------------2------------------------------------------|
E|--2-2-2--5-----5--0-0-0--3-5-0-------------------------|

Just before the 2nd fast part
G|--------------------------------------------------------|
D|--------------------------------------------------------|
A|-5--3-----5--3-----5--3-----55-55-----------------------|
E|-------5--------5--------5------------------------------|

part 2 play fast
G|----------------------------------------------------------------------|
D|-----------------4-5--4-----4-----------------------------4-5--4---4--|
A|555-000-555-000----------3-----7--0--5---555-000-555-000---------3---7|
E|----------------------------------------------------------------------|

G|----6---------------------------------|
D|-5------------------------------------|
A|--------------------------------------|
E|--------------------------------------|

Добавлено: 04.03.2016
Другие материалы по этой песне:
  • Аккорды и текст

Страница создана 19.04.2012
http://primanota.ru/dead-kennedys/hop-with-the-jet-set-chords.htm
Привет, Гость.
Предлагаем пройти революционный курс по гитаре.
Подарок от PrimaNota.Ru, забирай!