PrimaNota.ru - самый крупный в мире бесплатный архив песенных текстов, аккордов, табулатур и нот


Dead Kennedys - Halloween - текст песни, таба, бас-таба, видео

Регистрация Запомнить меня
Войти через:  Facebook Google Twitter Vk Yandex Mail.ru

Dead Kennedys - Halloween - текст песни, таба, бас-таба, видео

Печатать
Просмотров: 104
Авторы музыки: Jello Biafra, Klaus Flouride, Darren Henley, East Bay Ray
Авторы текста: Jello Biafra
-------------------------------------------------------------------------------
			     HALLOWEEN - DEAD KENNEDYS
-------------------------------------------------------------------------------
Tabbed by: Colin Pecolatto

Tuning: Standard


Intro  Played At 0:1-0:26, 0:56-1:05, 1:43-1:52 and 2:31-2:40


e|--------------------------------------------(14)---------10-----------|
B|--------------------------------------------(13)--12-9-12--12-12-9-b12|
G|--------------------------------------------(12)----------------------|
D|--------------------------------------------(12)----------------------|
A|--------------------------------------------(0)-----------------------|
E|3-6-8-8-8--3-6-8-8-8--3-6-8-8-8--3-6-8-8-8----------------------------|

e|-------10---------------------------------------10-------10-------10-----|
B|12-9-12--12-12-9-b12-b12-b12-b12-b12-b12-12-9-12--12-9-12--12-9-12--12-b9|
G|-------------------------------------------------------------------------|
D|-------------------------------------------------------------------------|
A|-------------------------------------------------------------------------|
E|-------------------------------------------------------------------------|

e|---6-----------9------------6---------------(14)---|
B|5-8-8-5-8--8-11-11-8-11--5-8-8-5-8--3-3-5---(13)---|
G|--------------------------------------------(12)---|
D|--------------------------------------------(12)---|
A|--------------------------------------------(0)----|
E|------------------------------------------------x16|


Verse  Played At 0:26-0:56, 1:05-1:30 and 1:52-2:31


e|--------------------------------------------------------------|
B|--------------------------------------------------------------|
G|--------------------------------------------------------------|
D|5--8--10-10-10---5--8-10-10-10---5--8-10-10-10---5--8-10-10-10|
A|5--8--10-10-10---5--8-10-10-10---5--8-10-10-10---5--8-10-10-10|
E|3--6---8--8--8---3--6--8--8--8---3--6--8--8--8---3--6--8--8--8|

e|-----------------------------------------------------------|
B|-----------------------------------------------------------|
G|---8-10-10-10-----8-10--10-10------------------------------|
D|10-8-10-10-10--10-8-10--10-10--5--8-10-10-10--5--8-10-10-10|
A|10-6--8--8--8--10-6--8--8--8---5--8-10-10-10--5--8-10-10-10|
E|-8--------------8--------------3--6--8--8--8--3--6--8--8--8|

e|--------------------------------------------------------------|
B|--------------------------------------------------------------|
G|---10--8--8--8------------------------------------------------|
D|10-10--8--8--8--10--8--5--5--5---5--8-10-10-10---5--8-10-10-10|
A|10--8--6--6--6--10--8--5--5--5---5--8-10-10-10---5--8-10-10-10|
E|-8---------------8--6--3--3--3---3--6--8--8--8---3--6--8--8--8|


Chorus   Played At 1:30-1:43 and 2:40-3:35


e|----------------------------------------------|
B|----------------------------------------------|
G|------------------------5--5--5--5--5--5--5--5|
D|7--7--7--7---5--5--5--5-5--5--5--5--5--5--5--5|
A|7--7--7--7---5--5--5--5-3--3--3--3--3--3--3--3|
E|5--5--5--5---3--3--3--3-----------------------|

If you have any questions then email me at Petey_poundrater@hotmail.com.

| /  slide up
| \  slide down
| h  hammer-on
| p  pull-off
| ~  vibrato
| +  harmonic
| x  Mute note
===============================================================================
Добавлено: 07.11.2013
Другие материалы по этой песне:
  • Аккорды и текст

Страница создана 14.07.2012
http://primanota.ru/dead-kennedys/halloween-chords.htm
Привет, Гость.
Предлагаем пройти революционный курс по гитаре.
Подарок от PrimaNota.Ru, забирай!