PrimaNota.ru - самый крупный в мире бесплатный архив песенных текстов, аккордов, табулатур и нот


Dead Kennedys - Fresh Fruit For Rotting Vegetables (album) - таба, видео

Регистрация Запомнить меня
Войти через:  Facebook Google Twitter Vk Yandex Mail.ru

Dead Kennedys - Fresh Fruit For Rotting Vegetables (album) - таба, видео

Печатать
Просмотров: 122
FRESH FRUIT FOR ROTTING VEGETABLES
[Albulm Created by Rbm90120 (rbm90120@aol.com)]
~Last Update 3/26/05 8:32 PM
=============================================================================

1-Kill the Poor               :Ben Banks
2-Foward to Death             :"Rhys"
3-When Ya Get Drafted         :ikillchildren
4-Let's Lynch the Landlord    :Matt
5-Drug Me                     :danc446
6-Your Emotions               :Unknown
7-Chemical Warfare            :Rambozo {made in 1995!}
8-California Über Alles       :Unknown
9-I Kill Children             :Mxtabs
10-Stealing People's Mail     :Rbm90120
11-Funland at the Beach       :Mxtabs
12-Ill in the Head            :Can't find (help please)
13-Holiday in Cambodia        :TOBY BRANFOOT
14-Viva Las Vegas             :CANT FIND (help please)


--------------------------------------------------------------------------------
Kill the Poor
--------------------------------------------------------------------------------

  Words Biafra - music Biafra/Ray

Repeat this for the first verse and let all these notes ring:
       D              B5              G                 A  Asus A
 E---2-------------------1---------------------|
 B---3-------------------0----------2--3--2----|
 G---2---------4---------0----------2--2--2----|
 D---0---------4---------0----------2--2--2----|
 A---0---------2---------2---------------------|
 E------------------------3--------------------|

D
Efficiency and progress is ours once more
B5
Now that we have the Neutron bomb
     G                                        A    Asus A
It's nice and quick and clean and gets things done
 D
Away with excess enemy
    B5
But no less value to property
   G                                 A
No sense in war but perfect sense at home...


For the next part play:
       D
 E---2------------------------|
 B---3------------------------|
 G---2------------------------|
 D---0------------------------|
 A---0-----222233330----------|
 E----------------------------|

The sun beams down on a brand new day
No more welfare tax to pay
Unsightly slums gone up in flashing light
Jobless millions whisked away
At last we have more room to play
All systems go to kill the poor tonite

For the chorus play the power chords on the frets and the A's as normal:

       D5        B5        G       A  Asus A
 E--------------------------------------|
 B------------------------2--3--2-------|
 G---7------4-------------2--2--2-------|
 D---7------4-----5-------2--2--2-------|
 A---5------2-----5---------------------|
  E----------------3--------------------|

 Gonna
   D5
   Kill kill kill kill kill the poor
   B5
   Kill kill kill kill kill the poor
   G5                                       A Asus A
   Kill kill kill kill kill the poor ... Tonite


       D
 E---2------------------------|
 B---3------------------------|
 G---2------------------------|
 D---0------------------------|
 A---0-----222233330----------|
 E----------------------------|

Behold the sparkle of champagne
The crime rate's gone Feel free again
O' life's a dream with you, Miss Lily White
Jane Fonda on the screen today
Convinced the liberals it's okay
So let's get dressed and dance away the night

   While they
      D5
   Kill kill kill kill kill the poor
   B5
   Kill kill kill kill kill the poor
   G5                                       A Asus A
   Kill kill kill kill kill the poor ... Tonite    (x2)

Then play this:

      G    F5    Em
 E--1------------0---|
 B--0------------0---|
 G--0------------0---|
 D--0---3---2--------|
 A--2---3---2--------|
 E--3---1---0--------|


Solo

G-12-12-12-12-12-  (play this riff for a while)

then to finish of the solo go to this
E-14-15-------------|
B ------14----------|
G---------14-14-15--|  (bend the last note)
D-------------------|
A-------------------|
E-------------------|

For the next part instead of playing:
        D
 E---2------------------------|
 B---3------------------------|
 G---2------------------------|
 D---0------------------------|
 A---0-----222233330----------|
 E----------------------------|

Play this instead

 E ------------|
 B-------------|
 G--7-12-5-----|
 D--7-12-5-----|
 A--5-10-3-----|
 E-------------|

Behold the sparkle of champagne
The crime rate's gone Feel free again
O' life's a dream with you, Miss Lily White
Jane Fonda on the screen today
Convinced the liberals it's okay
So let's get dressed and dance away the night

While they
   D5
   Kill kill kill kill kill the poor
   B5
   Kill kill kill kill kill the poor
   G5                                       A Asus A
   Kill kill kill kill kill the poor ... Tonite      (x3)


Then this again to finish the song:

      G    F5    Em
 E--1------------0---|
 B--0------------0---|
 G--0------------0---|
 D--0---3---2--------|
 A--2---3---2--------|
 E--3---1---0--------|


--------------------------------------------------------------------
Foward to Death
--------------------------------------------------------------------


b - Bend

Intro x1
e|-00-00-00-00--0-2-4-5--5-4-5-4--|
B|-00-00-00-00--0-2-4-5--7-6-7-6--|
G|-11-11-11-11--1-3-5-6--7-6-7-6--|
D|-22-22-22-22--2-4-6-7--7-6-7-6--|
A|-22-22-22-22--2-4-6-7--5-4-5-4--|
E|--------------0-2-4-5-----------|

Verse x3
e|-7-7--7-7--9--9--9--9---|
B|-9-9--7-7--9--9--9--9---|
G|-9-9--8-8--10-10-10-10--|
D|-9-9--9-9--11-11-11-11--|
A|-7-7--9-9--11-11-11-11--|
E|------7-7--9--9--9--9---|

Pre Chorus x2
e|-5-5-5-5--4-4-4-4--|
B|-5-5-5-5--4-4-4-4--|
G|-6-6-6-6--5-5-5-5--|
D|-7-7-7-7--6-6-6-6--|
A|-7-7-7-7--6-6-6-6--|
E|-5-5-5-5--4-4-4-4--|

Chorus x                         x1
e|-4-4--2-2--0-0-0-0--2-2--4-4-|-10--9---10--9---|
B|-4-4--2-2--0-0-0-0--4-4--6-6-|-10--9---10--9---|
G|-5-5--3-3--1-1-1-1--4-4--6-6-|-11--10--11--10--|
D|-6-6--4-4--2-2-2-2--4-4--6-6-|-12--11--12--11--|
A|-6-6--4-4--2-2-2-2--2-2--4-4-|-12--11--12--11--|
E|-4-4--2-2--0-0-0-0-----------|-10--9---10--9---|

Bridge
e|---5-------7--------9--------7---|
B|---5-------7--------9--------7---|
G|---6b------8b-------10b------8b--|
D|-7-------9-------11--------9-----|
A|-7-------9-------11--------9-----|
E|-5-------7-------9---------7-----|

Outro Tremolo Pick these notes
e|-9-7-5-7-------------------------------------------------------------------|
B|-9-9-5-7-------------------------------------------------------------------|
G|---------------------------------------------------------------------------|
D|---------------------------------------------------------------------------|
A|---------------------------------------------------------------------------|
E|---------------------------------------------------------------------------|
I don't need your way of life 
I can't stand your attitudes 
I can do without your strife 
I don't need this fucking world 
I don't need this fucking world 

This world brings me down 
Gag with every breath 
This world brings me down 
I'm looking forward to death 

It seems so unreal to me
So much hate and so mouch pity
I can't take another day
It's such a bore
It gets me really sore
I don't need this fucking world
I don't need this fucking world 
This world brings me down
Gag with every breath
This world brings me down
I'm looking forward to death
Looking forward to death 

-----------------------------------------------------------------------------
When Ya Get Drafted
-----------------------------------------------------------------------------

BASS INTRO: 1x

GUITAR INTRO: (2x)             (1x) 
    C   C  B B  C  C   D# D#   B B B B  E# E# E# E# E# E# E# E#
e|--9---9--7-7--12-12--14-14-|-7-7-7-7--14-14-14-14-14-14-14-14-|
b|--9---9--7-7--12-12--14-14-|-7-7-7-7--14-14-14-14-14-14-14-14-|
g|--10-10--8-8--13-13--15-15-|-8-8-8-8--15-15-15-15-15-15-15-15-|
d|--11-11--9-9--14-14--16-16-|-9-9-9-9--16-16-16-16-16-16-16-16-|
a|--11-11--9-9--14-14--16-16-|-9-9-9-9--16-16-16-16-16-16-16-16-|
e|--9---9--7-7--12-12--14-14-|-7-7-7-7--14-14-14-14-14-14-14-14-|

Verse:							 
    B B B B F#F#F#F# A A A A  E# E# E# E# E# E# E# E#	         (2x)    
e|--7-7-7-7--2-2-2-2--5-5-5-5--14-14-14-14-14-14-14-14-|
b|--7-7-7-7--2-2-2-2--5-5-5-5--14-14-14-14-14-14-14-14-|
g|--8-8-8-8--3-3-3-3--7-7-7-7--15-15-15-15-15-15-15-15-|
d|--9-9-9-9--4-4-4-4--6-6-6-6--16-16-16-16-16-16-16-16-|
a|--9-9-9-9--4-4-4-4--6-6-6-6--16-16-16-16-16-16-16-16-|
e|--7-7-7-7--2-2-2-2--5-5-5-5--14-14-14-14-14-14-14-14-|
     B B B B  F#F#F#F# A A A A  FmFmG#G#                	(1x)
e|--7-7-7-7--2-2-2-2--5-5-5-5--0-0-4-4-| 
b|--7-7-7-7--2-2-2-2--5-5-5-5--0-0-4-4-| 
g|--8-8-8-8--3-3-3-3--7-7-7-7--1-1-5-5-|
d|--9-9-9-9--4-4-4-4--6-6-6-6--2-2-6-6-| 
a|--9-9-9-9--4-4-4-4--6-6-6-6--2-2-6-6-| 
e|--7-7-7-7--2-2-2-2--5-5-5-5--0-0-4-4-|
     B B B B  F#F#F#F# A A A A  E# E# E# E# E# E# E# E#	(1x)
e|--7-7-7-7--2-2-2-2--5-5-5-5--14-14-14-14-14-14-14-14-|
b|--7-7-7-7--2-2-2-2--5-5-5-5--14-14-14-14-14-14-14-14-|
g|--8-8-8-8--3-3-3-3--7-7-7-7--15-15-15-15-15-15-15-15-|
d|--9-9-9-9--4-4-4-4--6-6-6-6--16-16-16-16-16-16-16-16-|
a|--9-9-9-9--4-4-4-4--6-6-6-6--16-16-16-16-16-16-16-16-|
e|--7-7-7-7--2-2-2-2--5-5-5-5--14-14-14-14-14-14-14-14-| 

CHORUS:                                                         (2x)
e|----------------------------------| 
b|----------------------------------| 
g|----------------------------------| 
d|----------------------------------| 
a|----------------------------------| 
e|--2-2-3-0-2-2-3-0-2-2-3-0-2-2-2-2-|

Verse:							 
    B B B B F#F#F#F# A A A A  E# E# E# E# E# E# E# E#	         (2x)    
e|--7-7-7-7--2-2-2-2--5-5-5-5--14-14-14-14-14-14-14-14-|
b|--7-7-7-7--2-2-2-2--5-5-5-5--14-14-14-14-14-14-14-14-|
g|--8-8-8-8--3-3-3-3--7-7-7-7--15-15-15-15-15-15-15-15-|
d|--9-9-9-9--4-4-4-4--6-6-6-6--16-16-16-16-16-16-16-16-|
a|--9-9-9-9--4-4-4-4--6-6-6-6--16-16-16-16-16-16-16-16-|
e|--7-7-7-7--2-2-2-2--5-5-5-5--14-14-14-14-14-14-14-14-|
     B B B B  F#F#F#F# A A A A  FmFmG#G#                	(1x)
e|--7-7-7-7--2-2-2-2--5-5-5-5--1-1-4-4-| 
b|--7-7-7-7--2-2-2-2--5-5-5-5--1-1-4-4-| 
g|--8-8-8-8--3-3-3-3--7-7-7-7--1-1-5-5-|
d|--9-9-9-9--4-4-4-4--6-6-6-6--3-3-6-6-| 
a|--9-9-9-9--4-4-4-4--6-6-6-6--3-3-6-6-| 
e|--7-7-7-7--2-2-2-2--5-5-5-5--1-1-4-4-|
     B B B B  F#F#F#F# A A A A  E# E# E# E# E# E# E# E#	(1x)
e|--7-7-7-7--2-2-2-2--5-5-5-5--14-14-14-14-14-14-14-14-|
b|--7-7-7-7--2-2-2-2--5-5-5-5--14-14-14-14-14-14-14-14-|
g|--8-8-8-8--3-3-3-3--7-7-7-7--15-15-15-15-15-15-15-15-|
d|--9-9-9-9--4-4-4-4--6-6-6-6--16-16-16-16-16-16-16-16-|
a|--9-9-9-9--4-4-4-4--6-6-6-6--16-16-16-16-16-16-16-16-|
e|--7-7-7-7--2-2-2-2--5-5-5-5--14-14-14-14-14-14-14-14-| 

CHORUS 2:                                                       (1x)
e|-------------------------------------------------------------------| 
b|-------------------------------------------------------------------| 
g|-------------------------------------------------------------------| 
d|-------------------------------------------------------------------| 
A|-------------------------------------------------------------------| 
e|--2-2-3-0-2-2-3-0-2-2-3-0-2-2-2-2--2-2-3-0-2-2-3-0-2-2-3-0-2-2-2-2-| 

e|--------------------------------------------------------------| 
b|--------------------------------------------------------------| 
g|--------------------------------------------------------------| 
d|--------------------------------------------------------------| 
a|--2-2-3-0-2-2-3-0-2-2-3-0-2-2-2-2-----------------------------| 
e|--------------------------------------2-2-3-0-2-2-3-0-2-2-3-0-| 

SOLO:(Use some sort of effect to get that evil sound.)          (1x)
e|----15-14--14--13-12---15-14--14--13~----18-17--17--16-15-|
b|--13-----15--14------13-----15--14-----16-----18--17------|
g|----------------------------------------------------------|
d|----------------------------------------------------------|
a|----------------------------------------------------------|
e|----------------------------------------------------------|

e|----18-17--17--16-15----18-17--17--16-20-20-20-20-20-20-|
b|--16-----18--17-------16-----18--17---------------------|
g|--------------------------------------------------------|
d|--------------------------------------------------------|
a|--------------------------------------------------------|
e|--------------------------------------------------------|

CHORUS: x2
e|----------------------------------| 
b|----------------------------------| 
g|----------------------------------| 
d|----------------------------------| 
a|----------------------------------| 
e|--2-2-3-0-2-2-3-0-2-2-3-0-2-2-2-2-|



Are you believing the morning papers?
War is coming back in style
There's generals here, advisors there
And Russians nibbling everywhere
The chessboard's filling up with red
We make more profits when we blow off their heads 

Economy is looking bad
Let's start another war when ya get drafted 
Fan the fires of racist hatred
We want total war when ya get drafted 
 
Drooling fingers
Panic buttons
Playing with missiles like they're toys
There's easy money, easy jobs
Especially when you build the bombs
That blow big cities off the map
Just guess who profits when we build 'em back up 
Yeah, what Big Business wants Big Business gets 
 
It wants a war  when ya get drafted 
Trilateral Commission goonies laugh  
 and scheme for more  when ya get drafted 
Call the Army!
Call the Navy!
Stocked with kids from slums  when ya get drafted 
If you can't afford a slick attorney
We might make you a spy 
 
Forget your demonstrations
Kids today sit on their ass when ya get drafted 
Just a six-pack
And you're happy
We're prepared
For when ya get drafted 




*if it doesn't sound right maybe you're not using heavy chorus over the distortion
like they did.

after the solo go back to chorus and your done

------------------------------------------------------------------------------------
Lets Lynch the Land Lord
------------------------------------------------------------------------------------


I haven't got the solo in the middle of the song yet (still
working on it).  Here is all I know.
If you know the solo, would you be able to email it to me?

regards, Matt
mwatts@neumann.une.oz.au

Here is the original DK version:

---------------------------------|
---------------------------------|
---------------------------------|
-----3---------------3---5-3-----|
-5-----5-3---0-3-5-----5-----5-3-|
---------------------------------|

The bar chords during the song are just the B chords played
on the E, A and D strings:

-----------------------------------|
-----------------------------------|
-----------------------------------|
-7---7-7-7-7-7-7---5---5-5-5-5-5-5-|
-5---5-5-5-5-5-5---3---3-3-3-3-3-3-|
-5---5-5-5-5-5-5---3---3-3-3-3-3-3-|

then

---------------------------------------|
---------------------------------------|
---------------------------------------|
-7---7-7-7-7-7-7---5---5-5-5-5-5-5---9-|
-5---5-5-5-5-5-5---3---3-3-3-3-3-3---7-|
-5---5-5-5-5-5-5---3---3-3-3-3-3-3---7-|
                                     ^I think this is right


In the L7 cover of this song (on the virus 100 album) this is
how they play it.
(except fast and thrashy with heaps of distortion)

---------------------------------|
---------------------------------|
---------------------------------|
---------------------------------|
-----3---------------3---5-3-----|
-5-----5-3---0-3-5-----5-----5-3-|

The bar chords during the song are just the E chords played
on the E, A and D strings:

-----------------------------------|
-----------------------------------|
-----------------------------------|
-7---7-7-7-7-7-7---5---5-5-5-5-5-5-|
-7---7-7-7-7-7-7---5---5-5-5-5-5-5-|
-5---5-5-5-5-5-5---3---3-3-3-3-3-3-|

then

---------------------------------------|
---------------------------------------|
---------------------------------------|
-7---7-7-7-7-7-7---5---5-5-5-5-5-5---9-|
-7---7-7-7-7-7-7---5---5-5-5-5-5-5---9-|
-5---5-5-5-5-5-5---3---3-3-3-3-3-3---7-|
                                     ^I think this is right
The Landlord's here to visit
They're blasting disco down below
Sez, "I'm doubling up the rent
Cos the building's condemned
You're gonna help me buy City Hall" 

But we can, you know we can
But we can, you know we can
Let's lynch the landlord man 

I tell them 'turn on the water'
I tell 'em 'turn on the heat'
Tells me 'All you ever do is complain'
Then they search the place when I'm not here 

But we can, you know we can
Let's lynch the landlord
Let's lynch the landlord
Let's lynch the landlord man 

There's rats chewin' up the kitchen
Roaches up to my knees
Turn the oven on, it smells like Dachau, yeah
Til the rain pours thru the ceiling 

But we can, you know we can
Let's lynch the landlord man 


-----------------------------------------------------------------------------
Drug Me
-----------------------------------------------------------------------------

Tuning: Standard E Tuning

e|------------------------------------------------------------|--------------|
B|---Repeat this----------------------------------------------|--------------|
G|--for some times--------------------------------------------|--Repeat this-|
D|------------------------------4-6-4---------4-6-4-----------|--whole thing-|
A|--4-2-4-2-4-2-4-2---4-2-4-4-4-------5-4-4-4-------5-4-4-4---|----again,----|
E|------------------------------------------------------------|-----THEN...--|

(This is riff A)
e|---------------------------------------------------------------------------|
B|---------------------------------------------------------------------------|
G|---------------------------------------------------------------------------|
D|---------------------------------------------------------------------------|
A|------------6-6-6-6-6-----------10-10-10-10-10-----------------------------|
E|--0-0-0-0-0-----------0-0-0-0-0--------------------------------------------|

 (This is riff B)
e|---------------------------------------------------------------------------|
B|---------------------------------------------------------------------------|
G|---------------------------------------------------------------------------|
D|---------------------------------------------------------------------------|
A|--{5-3-5-6}-5-3-5-6-5-3-5-6-5-3-5-6-5-3-5-6-5-3-5-6-5-3-5-6-5-3-5-3--------|
E|---------------------------------------------------------------------------|

e|-------------------------------------------------------------|-------------|
B|-------------------------------------------------------------|-------------|
G|--Repeat-----------------------------------------------------|-Repeat this-|
D|this some----------------------------------------------------|-all again..-|
A|----------------------------3-5-3-----------3-5-3------------|-------------|
E|--3-1-3-1-----3-1-3-1-3-3-3-------4-3-3-3-3-------3-3-3-3-3--|----THEN-----|

Here play Riff B

e|---------------------------------------------------------------------------|
B|---------------------------------------------------------------------------|
G|---------------------------------------------------------------------------|
D|---------------------------------------------------------------------------|
A|---------6-6-6-6---------12-12-12-12---------13-13-13-13-13-13-13-13-13----|
E|-0-0-0-0---------0-0-0-0-------------0-0-0-0-------------------------------|

   C5                F#5      F5     (Bb5 C5)
e|---------------------------------------------------------------------------|
B|---------------------------------------------------------------------------|
G|-------------------11-11-11-10-10-10---------------------------------------|
D|-10-10-10-10-10-10-11-11-11-10-10-10--8-10--8-10--8-10--8-10---------------|
A|-10-10-10-10-10-10--9--9--9--8--8--8--8-10--8-10--8-10--8-10---------------|
E|--8--8--8--8--8--8--------------------6--8--6--8--6--8--6--8---------------|

e|---------------------------------------------------------------------------|
B|-------------------------------------------------------------------Repeat--|
G|--------------------------------------------------------------------again--|
D|---------------------------------------------------------------------------|
A|----------------------------------------5-7-5-----------5-7-5--------------|
E|--5-3-5-3-5-3-5-3-5-3-5-3-5-3-5-3-5-5-5-------6-5-5-5-5-------6-5----------|

I don't want to think
Don't make me care
I wanna melt in with the group
I need the balls
To leap out of my shell
And let go with my friends 

Can't come up with anything I want to do
I need a project I can finish
My brain needs some stimulation
DRUG ME DRUG ME DRUG ME DRUG ME DRUG ME 

I'm so fucking tired
I gotta stay awake
I'm runnin' late
I gotta make it thru the day
And make my time go by 

TV and the stereo and girls are lots of fun
I want the max
I relate better loaded
'Gotta see that movie stoned' 

DRUG ME DRUG ME DRUG ME DRUG ME 
Drug me with natural vitamin C
Drug me with pharmaceutical speed
Drug me with your sleeping pills
Drug me with your crossword puzzles
Drug me with your magazines
Drug me with your fuck machines
With a fountain of fads
More rock and roll ads
DRUG ME DRUG ME DRUG ME ME ME 

Finally off of work
Unwind and watch the ball game at the bar
Another potato chip weekend
Is here at last 

Go away Go away Go away Go away Go away
Leave me alone
So I can't see myself
DRUG ME DRUG ME DRUG ME 

-----------------------------------------------------------------------------
Your Emotions
-----------------------------------------------------------------------------
Mxtabs [http://www.mxtabs.net]
Easier then it looks, if you know barre chords. (Almost every DK song has barre
chords learn them) I\'m pretty sure this is 100%

Intro      4x
e|-3--5--|-7-7-7-7---3-3-5-5--|
B|-3--5--|-9-9-9-9---3-3-5-5--|
G|-4--6--|-9-9-9-9---4-4-6-6--|
D|-5--7--|-9-9-9-9---5-5-7-7--|
A|-5--7--|-7-7-7-7---5-5-7-7--|
E|-3--5--|-----------3-3-5-5--|

Verse 3x                1x
e|-7-7-7-7---3-3-5-5--|-7-7-7-7---7-7-7-7--|
B|-9-9-9-9---3-3-5-5--|-9-9-9-9---7-7-7-7--|
G|-9-9-9-9---4-4-6-6--|-9-9-9-9---8-8-8-8--|
D|-9-9-9-9---5-5-7-7--|-9-9-9-9---9-9-9-9--|
A|-7-7-7-7---5-5-7-7--|-7-7-7-7---9-9-9-9--|
E|-----------3-3-5-5--|-----------7-7-7-7--|

Fill 1x
e|-7-7-7-7---3-3-5-5---7-7-7-7---3-3-5-5--|
B|-9-9-9-9---3-3-5-5---9-9-9-9---3-3-5-5--|
G|-9-9-9-9---4-4-6-6---9-9-9-9---4-4-6-6--|
D|-9-9-9-9---5-5-7-7---9-9-9-9---5-5-7-7--|
A|-7-7-7-7---5-5-7-7---7-7-7-7---5-5-7-7--|
E|-----------3-3-5-5-------------3-3-5-5--|

Verse 3x                1x
e|-7-7-7-7---3-3-5-5--|-7-7-7-7---7-7-7-7--|
B|-9-9-9-9---3-3-5-5--|-9-9-9-9---7-7-7-7--|
G|-9-9-9-9---4-4-6-6--|-9-9-9-9---8-8-8-8--|
D|-9-9-9-9---5-5-7-7--|-9-9-9-9---9-9-9-9--|
A|-7-7-7-7---5-5-7-7--|-7-7-7-7---9-9-9-9--|
E|-----------3-3-5-5--|-----------7-7-7-7--|

Chorus x1
e|-7-7---9--9--12-12--11-11---7-7---9--9--12-12--11-11---7-7---9--9--12-12--11-11--|
B|-9-9--11-11--14-14--13-13---9-9--11-11--14-14--13-13---9-9--11-11--14-14--13-13--|
G|-9-9--11-11--14-14--13-13---9-9--11-11--14-14--13-13---9-9--11-11--14-14--13-13--|
D|-9-9--11-11--14-14--13-13---9-9--11-11--14-14--13-13---9-9--11-11--14-14--13-13--|
A|-7-7---9--9--12-12--11-11---7-7---9--9--12-12--11-11---7-7---9--9--12-12--11-11--|
E|---------------------------------------------------------------------------------|
   1x
e|-7-7-7-7--12-12-12-12--7-7-7-7--12-12-12-12--|
B|-9-9-9-9--14-14-14-14--9-9-9-9--14-14-14-14--|
G|-9-9-9-9--14-14-14-14--9-9-9-9--14-14-14-14--|
D|-9-9-9-9--14-14-14-14--9-9-9-9--12-12-12-12--|
A|-7-7-7-7--12-12-12-12--7-7-7-7--12-12-12-12--|
E|---------------------------------------------|

Fill 1x
e|-7-7-7-7---3-3-5-5---7-7-7-7---3-3-5-5--|
B|-9-9-9-9---3-3-5-5---9-9-9-9---3-3-5-5--|
G|-9-9-9-9---4-4-6-6---9-9-9-9---4-4-6-6--|
D|-9-9-9-9---5-5-7-7---9-9-9-9---5-5-7-7--|
A|-7-7-7-7---5-5-7-7---7-7-7-7---5-5-7-7--|
E|-----------3-3-5-5-------------3-3-5-5--|

Verse 3x                1x
e|-7-7-7-7---3-3-5-5--|-7-7-7-7---7-7-7-7--|
B|-9-9-9-9---3-3-5-5--|-9-9-9-9---7-7-7-7--|
G|-9-9-9-9---4-4-6-6--|-9-9-9-9---8-8-8-8--|
D|-9-9-9-9---5-5-7-7--|-9-9-9-9---9-9-9-9--|
A|-7-7-7-7---5-5-7-7--|-7-7-7-7---9-9-9-9--|
E|-----------3-3-5-5--|-----------7-7-7-7--|

Chorus 1x
e|-7-7---9--9--12-12--11-11---7-7---9--9--12-12--11-11---7-7---9--9--12-12--11-11--|
B|-9-9--11-11--14-14--13-13---9-9--11-11--14-14--13-13---9-9--11-11--14-14--13-13--|
G|-9-9--11-11--14-14--13-13---9-9--11-11--14-14--13-13---9-9--11-11--14-14--13-13--|
D|-9-9--11-11--14-14--13-13---9-9--11-11--14-14--13-13---9-9--11-11--14-14--13-13--|
A|-7-7---9--9--12-12--11-11---7-7---9--9--12-12--11-11---7-7---9--9--12-12--11-11--|
E|---------------------------------------------------------------------------------|
   1x
e|-7-7-7-7--12-12-12-12--7-7-7-7--12-12-12-12--7-7-7-7--12-12-12-12--|
B|-9-9-9-9--14-14-14-14--9-9-9-9--14-14-14-14--9-9-9-9--14-14-14-14--|
G|-9-9-9-9--14-14-14-14--9-9-9-9--14-14-14-14--9-9-9-9--14-14-14-14--|
D|-9-9-9-9--14-14-14-14--9-9-9-9--14-14-14-14--9-9-9-9--14-14-14-14--|
A|-7-7-7-7--12-12-12-12--7-7-7-7--12-12-12-12--7-7-7-7--12-12-12-12--|
E|-------------------------------------------------------------------|

Outro 2x 
e|-7-7-7-7---7-7-7-7---7-7-7-7---7-7-7-7---7-7-7-7---7-7-7-7---7-7-7-7---7-7-7-7-|
B|-9-9-9-9---7-7-7-7---9-9-9-9---7-7-7-7---9-9-9-9---7-7-7-7---9-9-9-9---7-7-7-7-|
G|-9-9-9-9---8-8-8-8---9-9-9-9---8-8-8-8---9-9-9-9---8-8-8-8---9-9-9-9---8-8-8-8-|
D|-9-9-9-9---9-9-9-9---9-9-9-9---9-9-9-9---9-9-9-9---9-9-9-9---9-9-9-9---9-9-9-9-|
A|-7-7-7-7---9-9-9-9---7-7-7-7---9-9-9-9---7-7-7-7---9-9-9-9---7-7-7-7---9-9-9-9-|
E|-----------7-7-7-7-------------7-7-7-7-------------7-7-7-7-------------7-7-7-7-|

Your a monster!!


Your mommy told you this
And your daddy told you that
Always think like this
And never do that
You learned so many feelings
But what is there to that
Which are really yours
Or are you just a copycat 

Your school told you this
And your church told you that
Memorize this
And don't you dare look at that
...
...
Just a tape recorder
Mimicking of the bores 

You're so boring boring boring
Always tape machine recording
You're so boring boring boring
I've heard all this before 

Planless and mindless
Scraps from anywhere
Bunch of used parts
From garbage pails everywhere
Frankenstein became a monster
Just like you
Your scars only show
When someone talks to you 

You're so boring boring boring
Always tape machine recording
You're so boring boring boring
I've heard all this before
I've heard all this before
I've heard all this before
Your emotions make you a monster
Your emotions make you a monster
Your emotions make you a monster
Your emotions make you a monster 


---------------------------------------------------------------------
Chemical Warfare          (not the one made by /SLAYER\)
---------------------------------------------------------------------

Intro:
e-|--------------------------------------|
B-|--------------------------------------|
G-|--------------------------------------|
D-|------------------------------------7-|
A-|---3-3-5-3----3-3-7-7-3-3---3-3-5-3-7-|
E-|-5----------5-------------5---------5-|

riff 1:
e-|----------------------------------------------------|
B-|----------------------------------------------------|
G-|----------------------------------------------------|
D-|-10-10-10-10-9-9-7--7-x-7-5-5--7-10-10-10-10-9-9-7--|
A-|-10-10-10-10-9-9-7--7-x-7-5-5--7-10-10-10-10-9-9-7--|
E-|--8--8--8--8-7-7-5--5-x-5-3-3--5--8--8--8--8-7-7-5--|

riff 2:
e-|--------------------------------|
B-|--------------------------------|
G-|--------------------------------|
D-|-7-7-10-10-7-7-10-10-12-12-10-7-|
A-|-7-7-10-10-7-7-10-10-12-12-10-7-|
E-|-5-5--8--8-5-5--8--8-10-10--8-5-|

riff 3:
e-|----------------------------------|
B-|----------------------------------|
G-|-7-7-7-10-10-7-7-10-10-12-12-10-7-|
D-|-7-7-7-10-10-7-7-10-10-12-12-10-7-|
A-|-5-5-5--8--8-5-5--8--8-10-10--8-5-|
E-|----------------------------------|

riff 4:
e-|-------------------------------------------------------------------|
B-|-------------------------------------------------------------------|
G-|-------------------------------------------------------------------|
D-|-7-7-7-7-7-7-7-7-7-7-7-7-7-7-7-7--7-7-5-10-10-10-10-7-7-5-10-10-10-|
A-|-7-7-7-7-7-7-7-7-7-7-7-7-7-7-7-7--7-7-5-10-10-10-10-7-7-5-10-10-10-|
E-|-5-5-5-5-5-5-5-5-5-5-5-5-5-5-5-5--5-5-3--8--8--8--8-5-5-3--8-8-8-8-|

e-|-------------------------------------------------------|
B-|-------------------------------------------------------|
G-|-------------------------------------------------------|
D-|-7-7-5-10-10-10-10-10-10-10-10-10-10-10-10-10-10-10-10-|
A-|-7-7-5-10-10-10-10-10-10-10-10-10-10-10-10-10-10-10-10-|
E-|-5-5-3--8--8--8--8--8--8--8--8--8--8--8--8--8--8--8--8-|

riff 5:
e-|----------------------------------------------|
B-|----------------------------------------------|
G-|-9-9-9-12-9--9-9-9-12-9--9-9-9-12-9--7-9-7-9--|
D-|-9-9-9-12-9--9-9-9-12-9--9-9-9-12-9--7-9-7-9--|
A-|-7-7-7-10-7--7-7-7-10-7--7-7-7-10-7--5-7-5-7--|
E-|----------------------------------------------|

riff 6:
e-|------------------------------------|
B-|------------------------------------|
G-|------------------------------------|
D-|-7--7-7-6-6-5-5-4-4-7-7-6-6-5-5-4-4-|
A-|-7--7-7-6-6-5-5-4-4-7-7-6-6-5-5-4-4-|
E-|-5--5-5-4-4-3-3-2-2-5-5-4-4-3-3-2-2-|

riff 7:
e-|----------------------------------|
B-|----------------------------------|
G-|----------------------------------|
D-|-10-10--7-7-5-5-5-5-5-7-10-10-7-7-|
A-|-10-10--7-7-5-5-5-5-5-7-10-10-7-7-|
E-|--8--8--5-5-3-3-3-3-3-5--8--8-5-5-|

riff 8:
e-|-------------------------------------------------------|
B-|-------------------------------------------------------|
G-|-7-7-5-10-10-7-7-5-10-10-7-7-5-10-10-10-10-10-10-10-10-|
D-|-7-7-5-10-10-7-7-5-10-10-7-7-5-10-10-10-10-10-10-10-10-|
A-|-5-5-3--8--8-5-5-3--8--8-5-5-3--8--8--8--8--8--8--8--8-|
E-|-------------------------------------------------------|

riff 9:
e-|-----------------------|
B-|-----------------------|
G-|-----------------------|
D-|-7--x--5--x--2-2-2-2-5-|
A-|-7--x--5--x--2-2-2-2-5-|
E-|-5--x--3--x--0-0-0-0-3-|

riff 10:
e-|---------------------------------------------|
B-|---------------------------------------------|
G-|-------------13-12-13-15-13-12-13--------12--|
D-|-11-10-11-13----------------------10-13------|
A-|---------------------------------------------|
E-|---------------------------------------------|

e-|-------------------------------------------|
B-|-------------------------------------------|
G-|-------------12-11-12-13-12-11-12----12----|
D-|-11-10-11-13----------------------11----10-|
A-|-------------------------------------------|
E-|-------------------------------------------|

INTRO:
RIFF
1:
				RIFF 2
Down at the arsenal they keep the nerve gases
				RIFF 2
guarded day and night by caged white rabbits
				RIFF 3
been sitting there for years I'm gonna have at it

RIFF 4
I cut through the fence run right in and grab it go crazy crazy crazy
crazy.... RIFF 1:
				RIFF 2
Now I got my own mustard gas in my pocket
				RIFF 2
Climb on a tree on a branch and drop it'
				RIFF 3
on a country club full of saturday golfers

RIFF 4
so i can watch them die chokin shakin in convulsions go
crazy crazy crazy crazy crazy crazy crazy crazy....

RIFF 5
chemical warfare chemical warfare chemical warfare warfare warfare

RIFF 6
				RIFF 2
panic in the air see the headless chickens runnin
				RIFF 2
golf carts head on crashing crackin heads wide open
				RIFF 3
scratch the grass mister you can't breathe

RIFF 7
and roll and writhe in a sand trap starting to heave claw those clubs
lemme see you seethe

RIFF 8
crazy crazy crazy crazy crazy crazy

RIFF 5
chemical warfare chemical warfare chemical warfare warfare warfare

RIFF 9
yellow air yellow clouds blowin down down down the fairway
sensitive to the touch mowin
down the putting green heading straight for the big club house where..

RIFF 10
the stuffed country club effervescent ladies so carefree relax
pose by the pool limber limp with a dry martini until

RIFF 5
chemical warfare chemical warfare chemical warfare warfare warfare


I hope I put the riffs in the proper places.. but if i didn't oh
well... its not hard to figure out where to put them...

--------------------------------------------------------------------
California Uber Alles
--------------------------------------------------------------------

e:-------------------------------------------|
B:-------------------------------------------|
G:-----------------x2------------------------|x3.5
D:-----------------|9-99-9-99/101010101012109|
A:-7-8-10-87-8-10-8|7-77-7-77/8-88-8-88/10\87|
E:-----------------|pmpm--pm--pmpm-pmpm------|


e:8--9--8||--------x3---------------|
B:8--9--8||---------|---------------|
G:9--10-9||---------|---------------|
D:10-11-10|9-1012109|7--9999999-77--|
A:10-11-10|7-8-10-87|55-7777777-555-|
E:8--9--8||---------|-3-----------3-|


CHORUS:


e:77-77-77/8\--|x2 each time chorus comes around
B:77-77-77/8\--|
G:99-99-99/10\-|
D:99-99-99/10\-|
A:77-77-77/8\--|
E:-------------|


bridge(after each  chorus and played after the second one)


e:-----------------|x2(note:when bridge comes around by itself play
B:-----------------|   without power chors until he shouts die! then
G:-----------------|   repeat chorus once.)
D:9999999-77-------|
A:7777777-5588-55|
E:----------66-33|


finishing riff:


e-------------------|x3|----| see very simple listen to the album,
B-------------------||||----| record, cd, cassette whatever u have
G---------------7---||||----| to find out the exact rythem!
D9-9999-9997-77757-9||||9999|
A7-7777-7775-555-5-7||||7777|
E-------------------||||----|


-------------------------------------------------------------------
I Kill Children
-------------------------------------------------------------------
Starts off with guitar feedback and one of the greatest words spoken
"God told me to skin you alive!" just makes you feel all happy inside

Intro:
e-3---0---3--|
B-3---0---3--|
G-4---1---4--|
D-5---2---5--|
A-5---2---5--|
E-3---0---3--|

Main verse:
e--------------|
B--------------|
G-3-3-3/-5-5-5-|
D-3-3-3/-5-5-5-|
A-1-1-1/-3-3-3-|
E--------------|

Bridge:
e-3-3-3-3-1-1---------------1-1-3-|
B-3-3-3-3-1-1---------------1-1-3-|
G-4-4-4-4-2-2-3-3---3-3-3-3-2-2-4-|
D-5-5-5-5-3-3-3-3---3-3-3-3-3-3-5-|
A-5-5-5-5-3-3-1-1---1-1-1-1-3-3-5-|
E-3-3-3-3-1-1---------------1-1-3-|

                    ^------------^
At The End Of The Bridge Play The 2nd Part Of
It An Extra Time

Interlude:
e-3-3-3-3-6-6-6-6-|
B-3-3-3-3-6-6-6-6-|
G-4-4-4-4-7-7-7-7-|   X3
D-5-5-5-5-8-8-8-8-|
A-5-5-5-5-8-8-8-8-|
E-3-3-3-3-6-6-6-6-|

e-6-6-6-6-8--8--8--8------|
B-6-6-6-6-8--8--8--8------|
G-7-7-7-7-9--9--9--9------|     X3
D-8-8-8-8-10-10-10-10-----|
A-8-8-8-8-10-10-10-10-----|
E-6-6-6-6-8--8--8--8------|

Outro:
e--3--
B--3--
G--4--
D--5--
A--5--
E--3--

Order:
Intro     X 1
Verse
Bridge    X 2
Verse
Bridge    X 2
Interlude X 1
Verse
Bridge    X 4
Outro     X 1

I kill children
I love to see them die
I kill children
And make their mamas cry
Crush 'em under my car
I wanna hear them scream
Feed 'em poison candy
To spoil their Halloween 

So your're in the kids' ward
You're in there cos you're ill
How about some Pavulon
So I can see you chill 

Time to hit the scool bus
I think I'll shoot the tires
Offer them a helping hand
Of open telephone wires 

Ever wanted to die?
Of course you have
But I won't till I get my revenge
I don't wanna see people any more 

Things I never ever saw before
Make me see them for the shit they are
Take as many as I can away with me
Anyone can be king for a day 

So I kill children
I love to see them die
I kill children
And make their mamas cry
I bang their heads in doors
I kill children
Can hardly wait for yours.... 

---------------------------------------------------------------------------
Stealing People's Mail
---------------------------------------------------------------------------

Tabbed by Rbm90120 on 3/26/05 8:00 pm

I know this tab needs alot of work, (help!) but it is better than nothing!

Main Riff
|-------------------------------------------|
|-------------------------------------------|Repeat a lot.
|---99-77-99--99-77-99-1111-99--99-77-99----|
|---99-77-99--99-77-99-1111-99--99-77-99----|
|---77-55-77--77-55-77-9-9--77--77-55-77----|
|-------------------------------------------|


Solo
|-13h15h17---|Play this Lots of Times
|------------|
|------------|
|------------|
|------------|
|------------|
---------------------------------------------------------------------------
Funland at the Beach
---------------------------------------------------------------------------

Intro: 
e|---------------------------------------------------------|
B|---------------------------------------------------------| 
G|0-0-0-0-0-0-0-0-0-0-0-0-0-0-0-0-0-0-0-0-0-0-0-0-0-0-0-0--| 
D|---------------------------------------------------------| 
A|---------------------------------------------------------| 
E|---------------------------------------------------------| 

e|----------------------------------------------------| 
B|----------------------------------------------------| 
G|----------------------------------------------------| 
D|----------------------------------------------------| 
A|-75-----------75------------75-------------------| 
E|-----8-5-8--5-5----8-5-8--5-5-----8-5-8--5-5-8-8-5--| 

e|-5-5---8--8--5-5--0---5-5---8--8--5-5--0--| 
B|-5-5---8--8--5-5--0---5-5---8--8--5-5--0--| 
G|-6-6---9--9--6-6--1---6-6---9--9--6-6--1--| 
D|-7-7--10-10--7-5--2---7-7--10-10--7-7--2--| 
A|-7-7--10-10--7-7--2---7-7--10-10--7-7--2--| 
E|-5-5---8--8--5-5--0---5-5---8--8--5-5--0--| 

e|--8--8--5-----8--8--5--| 
B|--8--8--5-----8--8--5--|
G|--9--9--6-----9--9--6--| 
D|-10-10--7----10-10--7--| 
A|-10-10--7----10-10--7--| 
E|--8--8--5-----8--8--5--| 

e|-5-5--8--8-5-5-0----5-5--8--8-5-5-0---7-7-12-------------------5-5--8--8-5-5-0--| 
B|-6-6--9--9-6-6-1----5-5--8--8-5-5-0---8-8-11-------------------5-5--8--8-5-5-0--| 
G|-7-7-10-10-7-7-1----6-6--9--9-6-6-1---9-9-12-------------------6-6--9--9-6-6-1--| 
D|-7-7-10-10-7-7-2----7-7-10-10-7-7-2---9-9-12-------------------7-7-10-10-7-7-2--| 
A|-5-5--8--8-5-5-0----7-7-10-10-7-7-2---7-7-10-------------------7-7-10-10-7-7-2--| 
E|-5-5--8--8-5-5-0----5-5--8--8-5-5-0---7-7-10----3/-3/-3/-0----5-5--8--8-5-5-0--| 

e|--8--8--5-----8--8--5--| 
B|--8--8--5-----8--8--5--| 
G|--9--9--6-----9--9--6--| 
D|-10-10--7----10-10--7--| 
A|-10-10--7----10-10--7--| 
E|--8--8--5-----8--8--5--| 

e|-5-5--8--8-5-5-0----5-5--8--8-5-5-0--------------------------------------------------------| 
B|-6-6--9--9-6-6-1----5-5--8--8-5-5-0--------------------------------------------------------| 
G|-7-7-10-10-7-7-1----6-6--9--9-6-6-1--------------------------------------------------------| 
D|-7-7-10-10-7-7-2----7-7-10-10-7-7-2--------------------------------------------------------| 
A|-5-5--8--8-5-5-0----7-7-10-10-7-7-2----75-----------75------------75--------------------| 
E|-5-5--8--8-5-5-0----5-5--8--8-5-5-0-------8-5-8--5-5----8-5-8--5-5-----8-5-8--5-5-5-5-8-5--| 

e|-5-5--8--8-5-5-0--5--| 
B|-5-5--8--8-5-5-0--5--| 
G|-6-6--9--9-6-6-1--6--| 
D|-7-7-10-10-7-5-2--7--| 
A|-7-7-10-10-7-7-2--7--| 
E|-5-5--8--8-5-5-0--5--| 

e|-7-7-5-5-5-2---7-7-5-5-5-2---7-7-5-5-5-2--| 
B|-8-8-6-6-6-3---8-8-6-6-6-3---8-8-6-6-6-3--| 
G|-9-9-7-7-7-4---9-9-7-7-7-4---9-9-7-7-7-4--| 
D|-9-9-7-7-7-4---9-9-7-7-7-4---9-9-7-7-7-4--| 
A|-7-7-5-5-5-2---7-7-5-5-5-2---7-7-5-5-5-2--| 
E|-7-7-5-5-5-2---7-7-5-5-5-2---7-7-5-5-5-2--| 

e|-12-12-12-12-12-12-12-12-15-15-15-15-15-15-15-15-12-12-12-12-12-12-12-12--| 
B|-12-12-12-12-12-12-12-12-15-15-15-15-15-15-15-15-12-12-12-12-12-12-12-12--|
G|--------------------------------------------------------------------------| 
D|--------------------------------------------------------------------------| 
A|--------------------------------------------------------------------------| 
E|--------------------------------------------------------------------------| 

e|-9/10-10-10-10-9/10-10-9/10-10-12-12-12-12-12-12-12-12-15-15-15-15-15-15-|
B|-9/10-10-10-10-9/10-10-9/10-10-12-12-12-12-12-12-12-12-15-15-15-15-15-15-|
G|-------------------------------------------------------------------------|
D|-------------------------------------------------------------------------|
A|-------------------------------------------------------------------------|
E|-------------------------------------------------------------------------|

e|-15-15-15-15-14-14-13-13-12-12-15-15-14-14-13-13-12-12--5-5--8--8-5-5--8----| 
B|-15-15-15-15-14-14-13-13-12-12-15-15-14-14-13-13-12-12--6-6--9--9-6-6--9----| 
G|--------------------------------------------------------7-7-10-10-7-7-10-1--| 
D|--------------------------------------------------------7-7-10-10-7-7-10-1--| 
A|--------------------------------------------------------5-5--8--8-5-5--8----| 
E|--------------------------------------------------------5-5--8--8-5-5--8----| 

e|8--8--5-5--8--8-5-5--8--8--8--5-5--8--8-5-5--8--8--8--5-5--8--8-5-5--8--8--8--8--8--5---8--8--5| 
B|9--9--6-6--9--9-6-6--9--9--9--5-5--8--8-5-5--8--8--8--5-5--8--8-5-5--8--8--8--8--8--5---8--8--5| 
G|0-10--7-7-10-10-7-7-10-10-10--6-6--9--9-6-6--9--9--9--6-6--9--9-6-6--9--9--9--9--9--6---9--9--6| 
D|0-10--7-7-10-10-7-7-10-10-10--7-7-10-10-7-7-10-10-10--7-7-10-10-7-7-10-10-10-10-10--7--10-10--7| 
A|8--8--5-5--8--8-5-5--8--8--8--7-7-10-10-7-7-10-10-10--7-7-10-10-7-7-10-10-10-10-10--7--10-10--7| 
E|8--8--5-5--8--8-5-5--8--8--8--5-5--8--8-5-5--8--8--8--5-5--8--8-5-5--8--8--8--8--8--5---8--8--5| 

e|-5-5--8--8-5-5-0----5-5--8--8-5-5-0---7-7-12-------------------5-5--8--8-5-5-0--| 
B|-6-6--9--9-6-6-1----5-5--8--8-5-5-0---8-8-11-------------------5-5--8--8-5-5-0--| 
G|-7-7-10-10-7-7-1----6-6--9--9-6-6-1---9-9-12-------------------6-6--9--9-6-6-1--| 
D|-7-7-10-10-7-7-2----7-7-10-10-7-7-2---9-9-12-------------------7-7-10-10-7-7-2--| 
A|-5-5--8--8-5-5-0----7-7-10-10-7-7-2---7-7-10-------------------7-7-10-10-7-7-2--| 
E|-5-5--8--8-5-5-0----5-5--8--8-5-5-0---7-7-10----3/-3/-3/-0-----5-5--8--8-5-5-0--| 

e|-----------------------------------------------------| 
B|-----------------------------------------------------| 
G|-----------------------------------------------------| 
D|-----------------------------------------------------| 
A|-75-----------75------------75-----------------------| 
E|----8-5-8--5-5----8-5-8--5-5-----8-5-8--5-5-5-5-8-5--| x2 

e|5-5--8--8-5-5--8--8--8--5-5--8--8-5-5--8--8--8--5-5--8--8-5-5--8--8--8--5-5--8--8-5-5--8--8--8|
B|5-5--8--8-5-5--8--8--8--5-5--8--8-5-5--8--8--8--5-5--8--8-5-5--8--8--8--5-5--8--8-5-5--8--8--8| 
G|6-6--9--9-6-6--9--9--9--6-6--9--9-6-6--9--9--9--6-6--9--9-6-6--9--9--9--6-6--9--9-6-6--9--9--9| 
D|7-7-10-10-7-7-10-10-10--7-7-10-10-7-7-10-10-10--7-7-10-10-7-7-10-10-10--7-7-10-10-7-7-10-10-10| 
A|7-7-10-10-7-7-10-10-10--7-7-10-10-7-7-10-10-10--7-7-10-10-7-7-10-10-10--7-7-10-10-7-7-10-10-10| 
E|5-5--8--8-5-5--8--8--8--5-5--8--8-5-5--8--8--8--5-5--8--8-5-5--8--8--8--5-5--8--8-5-5--8--8--8|

e|-7-7-5-5-5-2---7-7-5-5-5-2---7-7-5-5-5-2-------------------------| 
B|-8-8-6-6-6-3---8-8-6-6-6-3---8-8-6-6-6-3-------------------------| 
G|-9-9-7-7-7-4---9-9-7-7-7-4---9-9-7-7-7-4-------------------------| 
D|-9-9-7-7-7-4---9-9-7-7-7-4---9-9-7-7-7-4-------------------------| 
A|-7-7-5-5-5-2---7-7-5-5-5-2---7-7-5-5-5-2---75--------------------| 
E|-7-7-5-5-5-2---7-7-5-5-5-2---7-7-5-5-5-2-------8-5-8--5-5-8-8-5--|

Sunny Sunday at the amusement park
See the fat kids spill their pop
Oh babe—lots of flags and balloons
But someone sabotaged the rollercoaster last night 

Ran a turn and then it smashed right down
Thru the crowded haunted house below
Oh No
Human hamburger No 

And it's  Crushed little Kids
Crushed little Kids
Crushed little Kids
Adorn the boardwalk 


See the tourists drop their jaws and cones
See the owners smell a big lawsuit
Oh Police! (call your lawyer first)
Make the witnesses go home
And they'll turn on the TV 

And see the crushed little kids
Adorn the boardwalk.... 

---------------------------------------------------------------------------------
Ill in the Head
---------------------------------------------------------------------------------

I can't find this guitar tab either if you know it e-mail me at RBM90120@aol.com.


---------------------------------------------------------------------------------
Holiday in Cambodia
---------------------------------------------------------------------------------

A fantastic song.....from my formative years [ B-) ] .....just get the
evil power of the opening riff right and you're there!

This is an alternative tab for this song to the one already here.

I've tabbed it for the different riffs.....individually spelt out first,
then the way I play them together with the words.

(P.S. I can't take credit for working it out.....Raymond Amour did that
for me)


Bass Riff
||-----------------------------------------------------------|
||-----------------------------------------------------------|
||*------------------------------------------------------*---|
||*------------------------------------------------------*---|
||---3---3--3--2--2--2--1--1--1--0--0--0--0--0--0--0--0------|(
||-----------------------------------------------------------|


Rakes
((17----\---8\---||
((---------------||
((---------------||
((---------------||
((---------------||
((---------------||


"A" Octaves
||-----------------------------------||
||-----------------------------------||
||---14--14--14--14--14--14--14--14--||
||-----------------------------------||
||---12--12--12--12--12--12--12--12--||
||-----------------------------------||


Riff 1
------------------------------------------------------------------------|
------------------------------------------------------------------------|
-5-----9--8-----5--5--5--4--11--10-----14--14--5-----9--8-----5--5--5---|
----0---------------------------------------------0---------------------|
-3-----7--6-----3--3--3--2--9---9------12--12--3-----7--6-----3--3--3---|
------------------------------------------------------------------------|

---------------|!
---------------|((
4--11--10------|((
---------------|((
2--9----9------|((
---------------|((


Arpegiated Chords1
-----------7-----------------10------------7----------------10----------|
--------7-----7----------10------10-----------7-----------------10------|
-----7---------------11-----------------7--------7------11----------10--|
--9--------------12------------------9--------------12------------------|
------------------------------------------------------------------------|
------------------------------------------------------------------------|

----------7---------|
-------7-----7------|
--------------------|
---9------------7---|
--------------------|
--------------------|


Riff 2
------------------------------------------------------------------------|
------------------------------------------------------------------------|
-7--7--7--7--7--7--7--7--5--5--5--5--5--5--5--5--------------5--5--5--5-|
-------------------------------------------------5--5--5--5-------------|
-5--5--5--5--5--5--5--5--3--3--3--3--3--3--3--3--------------3--3--3--3-|
-------------------------------------------------3--3--3--3-------------|

---------------------||
---------------------||
---------------------||
7--7--7--7--7--7--7--||
---------------------||
3--3--3--3--3--3--3--||


Arpegiated Chords 2
-------------5--5--------------------7--7------------------------8------|
-------6--6--------6--6--------8--8--------8--8----------10--10---------|
-7--7--------------------9--9--------------------10--10-----------------|
------------------------------------------------------------------------|
------------------------------------------------------------------------|
------------------------------------------------------------------------|

8----------------------7--7--------||
---10--10--------8--8--------8--8--||
-----------9--9--------------------||
-----------------------------------||
-----------------------------------||
-----------------------------------||


Chorus
----------------------------------------------13--||
----------------------------------------------13--||
-2--5--7--5--2--5--7--5--2--5--7--5-----------14--||
-0--5--7--5--0--5--7--5--0--5--7--5--7--5--3--15--||
-0--3--5--3--0--3--5--3--0--3--5--3--7--5--3------||
-------------------------------------5--3--1------||

Solo
-17--17--18--18--19--19--18--\||
------------------------------||
------------------------------||
------------------------------||
------------------------------||
------------------------------||


Bridge 1
||------------------||
||------------------||
||*---------9--10--*||
||*--10--9---------*||
||----------7--8----||
||---8---7----------||

Bridge 2
------------------------------------------------------------------------|
------------------------------------------------------------------------|
7--7--7--7--7--7--7--7--5--5--5--5--5--5--5--5--------------5--5--5-----|
------------------------------------------------5--5--5--5--------------|
------------------------------------------------------------------------|
------------------------------------------------------------------------|

---------------------------|
---------------------------|
5--------------------------|
---7--7--7--7--7--7--7--7--|
---------------------------|
---------------------------|

Bridge 3
||----------------------------------------------------------------------|
||----------------------------------------------------------------------|
||*---------------------------------------------------------------------|
||*-----2-----2-----2-----2-----5-----5-----5-----5-----7-----7---------|
||---0-----0-----0-----0-----3-----3-----3-----3-----5-----5-----5------|
||----------------------------------------------------------------------|

--------------------------------------||
--------------------------------------||
-------------------------------------*||
7-----7-----10-----10-----10-----10--*||
---5-----8------8------8------8-------||
--------------------------------------||


"Pol....Pot....Pol....Pot..
--------------------------|
--------------------------|
-2-----5-----7-----10-----|
-2-----5-----7-----10-----|
-0-----3-----5-----8------|
--------------------------|


End
||---------|
||---------|
||-------2-|
||-------2-|
||---3-\-0-|
||---------|

(Bass Riff)  x2

(Rakes)

(A Octaves)  x8

(Riff 1)

(Bass Riff)

(Bass Riff - muted)  x4
So you been to school for a year or two
And you know you've seen it all
In daddy's car thinkin' you'll go far
Back east your type don't crawl

(Arpegiated Chords 1)  x2
Play ethnicky jazz to parade your snazz
On your five grand stereo
Braggin that you know how the niggers feel cold
And the slums got so much soul

(Riff 2)  x2
It's time to taste what you most fear
Right Guard will not help you here

(Arpegiated Chords 2)  x2
Brace yourself, my dear
Brace yourself, my dear

(Chorus)
It's a holiday in Cambodia
It's tough kid but it's life
It's a holiday in Cambodia
Don't forget to pack a wife


(Riff 1)

(Bass Riff) x2


(Bass Riff - muted)   x4
You're a Star-Belly Sneech you suck like a leech
You want everyone to act like you
Kiss ass while you bitch so you can get rich
But your boss gets richer off you

(Arpegiated Chords 1)   x2
Well you'll work harder with a gun in your back
For a bowl of rice a day
Slave for soldiers till you starve
Then your head is skewered on a stake

(Riff 2)   x2
Now you can go where the people are one
Now you can go where they get things done

(Arpegiated Chords 2)    x2
What you need, my son
What you need, my son


(Chorus)
It's a holiday in Cambodia
Where people dress in black
A holiday in Cambodia
Where you'll kiss ass or crack


(Solo)

(Riff 1)

(Bridge)
Pol Pot, Pol Pot, Pol Pot, Pol Pot, Pol Pot, Pol Pot, ...


(Chorus)
It's a holiday in Cambodia
Where you'll do what your told
A holiday in Cambodia
Where the slums got so much soul

(End)
Pol Pot


Here you go Marc, I don't directly connect to the net so if you want
you can post this for other DK fans.
                                              Dennis Kaptain
                                              power!igor!djkap
                                              AT&T Bell Laboratories
                                              Mesquite, Texas

Holiday in Cambodia  by Dead Kennedys

    intro
E-------------------------------------------------------------------------|
B-------------------------------------------------------------------------|
G-------------------------------------------------------------------------|
D--------------------------7-7-7------------------------------------------|
A----------7-6---------9-8---------7-6---------9-8------------------------|
E--8-8-8-5-----8-8-8-5-----------5-----8-8-8-5----------------------------|

    -       repeat   4x?     - | -               riff 1               -----|
E------------------------------|-------------------------------------------|
B------------------------------|-------------------------------------------|
G------------------------------|-------------------------------------------|
D------------------------------|-------------------------------------------|
A------------------------------|-------------------------------------------|
E------8-8-8-7---6---5-5-5-----|----------8-8-8---7------6-----5-5-5-------|
                               |   so you been to school for a year or two


riff1
So you been to school for a year or two

And you know you've seen it all

In daddy's car thinkin' you'll go far

Back east your type don't crawl

     G                D                          - switch to chords
Play ethnicky jazz to parade your snazz
        G               D
On your five grand stereo
G                             D
Braggin that you know how the niggers feel cold
        G                 D
And the slums got so much soul
     D       C          G   C    A
It's time to taste what you most fear
D           C        G    C   A
Right Guard will not help you here
A         B        C   B
Brace yourself, my dear
A         B        C   D
Brace yourself, my dear

       A          C  D
It's a holiday in Cambodia
C    A             C    D
It's tough kid but it's life
C      A          C  D
It's a holiday in Cambodia
C     A              G F           riff1
Don't forget to pack a wife


riff1
You're a Star-Belly Sneech you suck like a leech

You want everyone to act like you

Kiss ass while you bitch so you can get rich

But your boss gets richer off you

     G                         D
Well you'll work harder with a gun in your back
      G              D
For a bowl of rice a day
G                  D
Slave for soldiers till you starve
          G                     D
Then your head is skewered on a stake
D           C            G      C   A
Now you can go where the people are one
D           C             G   C      A
Now you can go where they get things done
A        B        C   B
What you need, my son
A        B        C   D
What you need, my son


       A       C     D
It's a holiday in Cambodia
C     A            C  D
Where people dress in black
C A          C  D
A holiday in Cambodia
C     A               G  F         riff1
Where you'll kiss ass or crack


A   C    D   F    A   C    D   F    A   C    D   F
Pol Pot, Pol Pot, Pol Pot, Pol Pot, Pol Pot, Pol Pot, ...


            THE LEAD GOES HERE,...     PERHAPS ANOTHER DAY

       A          C  D
It's a holiday in Cambodia
C     A              C    D
Where you'll do what your told
C A          C  D
A holiday in Cambodia
C         A            G    F       C    A
Where the slums got so much soul    Pol  Pot

       A          B          C          D          F          G
     EADGBE     EADGBE     EADGBE     EADGBE     EADGBE     EADGBE
     ||||||     ||||||     ||||||     ||||||     ||||||     ||||||
 5th 111111 7th 111111 3rd 111111 5th 111111 1st 111111 3rd 111111
     |||2||     |||2||     ||||||     ||||||     |||2||     |||2||
     |34|||     |34|||     ||333|     ||333|     |34|||     |34|||
     ||||||     ||||||     ||||||     ||||||     ||||||     ||||||
     ||||||     ||||||     ||||||     ||||||     ||||||     ||||||
Добавлено: 28.04.2012
Другие материалы по этой песне:
  • Аккорды и текст

Страница создана 28.04.2012
http://primanota.ru/dead-kennedys/fresh-fruit-for-rotting-vegetables-album-chords.htm
Привет, Гость.
Предлагаем пройти революционный курс по гитаре.
Подарок от PrimaNota.Ru, забирай!