PrimaNota.ru - самый крупный в мире бесплатный архив песенных текстов, аккордов, табулатур и нот


Dead Kennedys - Forward to Death - текст песни, бас-таба, драм-таба, видео

Регистрация Запомнить меня
Войти через:  Facebook Google Twitter Vk Yandex Mail.ru

Dead Kennedys - Forward to Death - текст песни, бас-таба, драм-таба, видео

Печатать
Просмотров: 135
Авторы музыки: 6025
Авторы текста: 6025
-------------------------------------------------------------------------------
			     Forward To Death - Dead Kennedys
-------------------------------------------------------------------------------

Tabbed By :josh
e-mail:scrubster2002@yahoo.com

p=pull off
h=hammer on
\=slide down

Tuning:EADG

Intro (on the 15\4 part, alternate pick 8 times and slide fast)         
G|-----------------------------------------------------------|
D|-----------------------------------------------------------|
A|---------------7777---7777----------5p4-4444445p4-44--15\4-|
E|-0000---0000---------------00224455------------------------|

Verse
G|-------------------------------------------------------------------------|
D|-------------------------------------------------------------------------|
A|-77---------77--------77-------------------------------------2h444-2h444-|
E|----77-999-----77-999----77-999-5555-4444-5555-4444-44-22-00-------------|

Chorus
G|-------------------------------------------|
D|-------------------------------------------|
A|----------2h444-2h444----------2h444-2h444-|
E|-44-22-00-------------44-22-00-------------|

2nd Intro (do the same thing with the 15\4 part as i said above)
G|------------------------|
D|------------------------|
A|-5p4-4444445p4-44--15/4-|
E|------------------------|

2nd verse
G|----------------------------------|
D|----------------------------------|
A|-77---------77---------77---------|
E|----77-9999----77-9999----77-9999-|

Bridge
G|--------------------------------------------------------------|
D|--------------------------------------------------------------|
A|--------------------------------------------------2h444-2h444-|
E|-5555-7777-9999-7777-5555-4444-5555-4444-44-22-00-------------|

Play chorus again

Outro part 1 (do the same thing with the 15\4 part as i said above)
G|----------------------------------------------------|
D|----------------------------------------------------|
A|-5p4-444444-2h44444444-2h44444444-2h44444444--15\4--|
E|----------------------------------------------------|

Outro part 2
G|----------------------|
D|----------------------|
A|-54545454545454545454-|
E|----------------------|

I put the song it order just play in order.
Добавлено: 17.08.2013
Другие материалы по этой песне:
  • Аккорды и текст

Страница создана 16.04.2012
http://primanota.ru/dead-kennedys/forward-to-death-chords.htm
Привет, Гость.
Предлагаем пройти революционный курс по гитаре.
Подарок от PrimaNota.Ru, забирай!