PrimaNota.ru - самый крупный в мире бесплатный архив песенных текстов, аккордов, табулатур и нот


Dead Kennedys - Cesspools in Eden - текст песни, бас-таба, видео

Регистрация Запомнить меня
Войти через:  Facebook Google Twitter Vk Yandex Mail.ru

Dead Kennedys - Cesspools in Eden - текст песни, бас-таба, видео

Печатать
Просмотров: 136
Dead Kennedys -  Cesspools in Eden


Standard bass tuning: G,D,A,E.

verse

 X 1

G|-5----------------------------|
D|---3-3-0-3-3-3--0-0-0---0-0-0-|
A|---------------3------3-------|
E|------------------------------|

main Riff for verse

G|------------------------------|
D|-5-3-3-0-3-3-3--0-0-0---0-0-0-|
A|---------------3------3-------|
E|------------------------------|


G|-5-5-5-5-5-5-5------------------|
D|------------------0-0-0---0-0-0-|
A|----------------3------3--------|
E|--------------------------------|


G|-5----------------------------|
D|---3-3-0-3-3-3--0-0-0---6-5-4-|
A|---------------3------3-------|
E|------------------------------|

back to main

Play main verse

Bridge

  play 2X's
G|--------------------------------|
D|--------------------------------|
A|1-1-1-1-1-1-1-1-----------------|
E|----------------3-3-3-3-3-3-3-3-|


G|--------------------------------|
D|--------------------------------|
A|--------------------------------|
E|1-1-1-1-1-1-1-1-0-0-0-0-0-0-0-0-|


Chorus

G|--------------------------------|
D|--------------------------------|
A|------------5-5-6-6-6-6-6-6-6-6-|
E|3-3-3-3-3-3---------------------|

G|--------------------------------|
D|--------------------------------|
A|------------7-7-4-4-4-4-4-4-4-4-|
E|3-3-3-3-3-3---------------------|


G|--------------------------------|
D|--------------------------------|
A|----5-5-4-4-3-3-----3-2---2-2-2-|
E|3-3-------------1-1-------------|


G|------------------|
D|------------------|
A|------------------|
E|3----3----5-6-5-4-|

Back to the main riff for the verse

Then the bridge

Then Chorus

play 2X's and hold the notes long
G|-----------------------------|
D|-----------------------------|
A|-3----------2----------------|
E|-----------------------------|

G|---------------------------------|
D|---------------------------------|
A|-3-3-3-3-3-3-3-3-2-2-2-2-2-2-2-2-|
E|---------------------------------|

G|---------------------------------|
D|---------------------------------|
A|-3-3-3-3-3-3-3-3-----------------|
E|-----------------3-3-3-3-3-3-3-3-|


G|----------------------|
D|----------------------|
A|1---1111---1---1111---|
E|--3------3---3------3-|

G|--------------------------------|
D|-----7-7-6-6----------7-6--666--|
A|-5-5---------8-7--5-5-----------|
E|--------------------------------|

G|----------------------|
D|----------------------|
A|1---1111---1---1111---|
E|--3------3---3------3-|

G|--------------------------------|
D|-----7-7-6-6----------7-6--666--|
A|-5-5---------8-7--5-5-----------|
E|--------------------------------|

G|----------------------|
D|----------------------|
A|1---1111---1---1111---|
E|--3------3---3------3-|

G|--------------------------------|
D|-----7-7-6-6----------7-6--666--|
A|-5-5---------8-7--5-5-----------|
E|--------------------------------|

  Play 2X's
G|------------------------------|
D|------------------------------|
A|-------------10-8----8--------|
E|-10-10-10-10------10----8-8-8-|

G|-------------------------------------------|
D|-------------------------------------------|
A|---------8-6---6---------------------------|
E|-8-8-8-8-----8----6-6-6-8-8-8-8-8-8-9-9-10-|

G|--------------|
D|--------------|
A|--------------|
E|-1////12\\\\1-
Добавлено: 02.10.2013
Другие материалы по этой песне:
  • Аккорды и текст

Страница создана 08.03.2012
http://primanota.ru/dead-kennedys/cesspools-in-eden-chords.htm
Привет, Гость.
Предлагаем пройти революционный курс по гитаре.
Подарок от PrimaNota.Ru, забирай!