PrimaNota.ru - самый крупный в мире бесплатный архив песенных текстов, аккордов, табулатур и нот


Dead Fish - Voc - аккорды и текст, видео

Регистрация Запомнить меня
Войти через:  Facebook Google Twitter Vk Yandex Mail.ru

Dead Fish - Voc - аккорды и текст, видео

Печатать
Просмотров: 111
Voc
Dead Fish
Tom: D

(intro / refrão)

(riff)

E|-----------------------------------------------------------------------------------------------|
B|---------------------------------------------------------------------11-13---------------------|
G|7-7-777-7-77------------------------------7-9-11--4-9-11---------/12---------------------------|
D|0-0-000-5-55-7/9-99-----------------------x-x-x---x-x-x---7/9-9-9------------------------------|
A|0-0-000-5-55-7/9-99--------------4/5/4/0--5-7-9---2-7-9---7/9-9-9----------------------4/5/4/0-|
E|0-0-000-5-55-7/9-99-0-4/5-0-4/5-----------0-0-0-----------7/9-9-9-----------0-4/5-0-4/5--------|


D5
 Não sou um bom jogador não sei dizer frases feitas
                                         B5
Nada parece ser como é posterga-se toda dor!

B5           G5
Faça-se a razão!
                    B5
Deixo tudo em suas mãos
                    G5
Tudo que pensei por ontem
                  (riff 2)
Hoje não mais tentar

(riff 2)
E|------------------------------|
B|------------------------------|
G|------------------------------|
D|------------------------------|
A|--------5----------5----5-7-9-|
E|-2/3/2-----2/3/2--------------|

D5
Crer na vida de bons cidadãos ruas iluminadas, roupas limpas
                                                     B5
Nada parece ser como é onde há muros há o que esconder!

B5           G5
Faça-se a razão!
                            B5
Embaixo dos olhos da escravidão
                     G5          A5           D5
Não repita o que fez ontem hoje não mais duvidar

(riff)
D5              G5
  Sofrer por você!
         B5
Viver lutar!
                G5
De joelhos hesitar por não te desejar
D5       G5             B5
  Passos largos em direção
                      G5
Desejos por trás de desejos
             D5 (abafado)
Sem te ter amor!

D5                                  A5    (riff 3)
  Por todas as contas, por todos os objetos
B5                         G5
  Essa é a tendencia, isto é viver!
D5                            A5                 (riff 3)
  Por mais coêrencia, mais acertos, muito mais alvos

(riff 3)
E|-------------------------|
B|--------4b---------------|
G|--------0b---------------|
D|-------------------------|
A|-------------------------|
E|-------------------------|

E5/B            G5
    Muito mais cor!

(riff)
D5              G5
  Sofrer por você!
         B5
Viver lutar!
                G5
De joelhos hesitar por não te desejar
D5       G5             B5
  Passos largos em direção
                      G5
Desejos por trás de desejos
                B5
Por tanto te odiar

               G5
E por isso tentar
B5
  Por isso trabalha
    G5
Por isso roubar

E5               F#5 G5
  Por mais forte que seja...
E5         F#5 G5     A5   D5
  Você está aqui  Dinheiro!
Добавлено: 26.09.2013
Другие материалы по этой песне:
  • Аккорды и текст

Страница создана 08.08.2013
http://primanota.ru/dead-fish/voc-chords.htm
Привет, Гость.
Предлагаем пройти революционный курс по гитаре.
Подарок от PrimaNota.Ru, забирай!