PrimaNota.ru - самый крупный в мире бесплатный архив песенных текстов, аккордов, табулатур и нот


Dead Disco - Youre Out - таба, бас-таба, видео

Регистрация Запомнить меня
Войти через:  Facebook Google Twitter Vk Yandex Mail.ru

Dead Disco - Youre Out - таба, бас-таба, видео

Печатать
Просмотров: 101
Dead Disco
You're Out
myspace.com/deaddiscohq
its a really easy song from what i can hear

MAIN RIFF/INTRO

e|-----------------------------|
b|-----------------------------|
g|-----------------------------|
d|11--10-----------------------| 6 times before bridge
a|-----------------------------|
e|-------9--8--8--8-8--8-8-8-8-|

BRIDGE
e|11------------------------------------------10--------------9---------|
b|11------------------------------------------10--------------9---------|
g|12------------------------------------------11--------------10--------|
d|13------------------------------------------12--------------11--------|
a|13------------------------------------------12--------------11--------|
e|11------------------------------------------10--------------9---------|
  Do you really think you've got it made, how does it feel to be upstaged?

e|-------------------------------|
b|-------------------------------|
g|9------------------------------|
d|10-----------------------------|
a|10-------------6---------------|
e|8---6h8-8--6h8---6h8-8--6h8--8-|

e|11------------------------------------10-------------------9------|
b|11------------------------------------10-------------------9------|
g|12------------------------------------11-------------------10-----|
d|13------------------------------------12-------------------11-----|
a|13------------------------------------12-------------------11-----|
e|11------------------------------------10-------------------9------|
  And if you want to get it back better make a change, clean up your act

e|-------------------------------|
b|-------------------------------|
g|9------------------------------|
d|10-----------------------------|
a|10-------------6---------------|
e|8---6h8-8--6h8---6h8-8--6h8--8-|

CHORUS
this bit has got a powerful synth line, so the chords can't die out

e|11------------------------10--------------|
b|11------------------------10--------------|
g|12------------------------11--------------|
d|13------------------------12--------------|
a|13------------------------12--------------|
e|11------------------------10--------------|
  Oh did you think you were ahead of the game
e|-----------8----11-11--8-8--11-11--8-8-|
b|-----------8---------------------------|
g|-----------9---------------------------|
d|-----------10--------------------------|
a|-----------10--------------------------|
e|-----------8---------------------------|
 well guess again girl, now its our turn

e|11-----------------------10--------------|
b|11-----------------------10--------------|
g|12-----------------------11--------------|
d|13-----------------------12--------------|
a|13-----------------------12--------------|
e|11-----------------------10--------------|
 Don't get complacent cos someone's on your tail

e|-----------8----11-11--8-8--11-11--8-8--|
b|------------8---------------------------|
g|------------9---------------------------|
d|------------10--------------------------|
a|------------10--------------------------|
e|------------8---------------------------|
  And now its over, did no one tell you

the last two lines are the same structure, you get the idea
then...
e|-----------------------------|
b|-----------------------------|
g|-----------------------------|
d|11--10-----------------------| 4 times
a|-----------------------------|
e|-------9--8--8--8-8--8-8-8-8-|
When the clock strikes twelve the party stops
And all the good things must come to an end
Now the light's down low there's nothing left here
But a memory and an empty glass

Then the BRIDGE and CHORUS, and they're just the same as first time round
And goes back to the main riff at 02:02 (in case you're getting lost)

e|---------------------------------|   And theres a really fuzzy bit when
b|---------------------------------|   the vocals come in that sounds like:
g|---------------------------------|
d|11--10---------------------------|
a|---------------------------------|
e|-------9--8--8--8-8--8-8-8-8-----|

                                 e|---------------------------|
                                 b|---------------------------|
                                 g|5--5--5--5-5-8--5--5-5-----|
                                 d|---------------------------|
                                 a|---------------------------|
                                 e|------------------------4--|

                                 probably isn't right but sounds okay

it goes back to the chorus for a last time
and ends on  e|-11-11--8-8--11-11--8-8
Добавлено: 21.03.2012
Другие материалы по этой песне:
  • Аккорды и текст

Страница создана 21.03.2012
http://primanota.ru/dead-disco/youre-out-chords.htm
Привет, Гость.
Предлагаем пройти революционный курс по гитаре.
Подарок от PrimaNota.Ru, забирай!