PrimaNota.ru - самый крупный в мире бесплатный архив песенных текстов, аккордов, табулатур и нот


Dead By Sunrise - Condemned - текст песни, таба, видео

Регистрация Запомнить меня
Войти через:  Facebook Google Twitter Vk Yandex Mail.ru

Dead By Sunrise - Condemned - текст песни, таба, видео

Печатать
Просмотров: 164
Уроки эстрадного вокала в Санкт-Петербурге
Dead By Sunrise - Condemned (Guitar Solo)

I Think The Solo is correct to 95 - 100 % when you find a Mistake correct me please

 p   = pull-off             x   = dead note (left hand)
 h   = hammer-on            *   = palm mute (right hand)
 t   = tap-on               X\  = pick slide
 ~   = vibrato              hm  = harmonic
 /   = slide up             ah  = artificial harmonic
 \   = slide down           ( ) = ghost note
 ^   = bend                 tr  = trill
 ^r  = bend and release     tm  = trem picking

 Solo

 E----------------------------------11t---------8t-7t-10t-|
 B---------------------10^--------------10t-10t-----------|
 G--4/2\4----4/2\4------------7t-9t-----------------------|
 D--------------------------------------------------------|
 A--------------------------------------------------------|
 E--------------------------------------------------------|


 E--------------------------------------------------------|
 B-8t-7t--------------------------------------------------|
 G-------10t-9t-7t---9t-10t-9t-----9t-7t-7^---------------|
 D-----------------------------10t-------------7t-9t-7t---|
 A------------------------------------------9t------------|
 E--------------------------------------------------------|

 E----------------------------------------------------------------------|
 B----------------7t----------7t----------7t----------7t----------------|
 G-7^-9h-7^-9h-7^----9t-7t-------9t-7t-------9t-7t-------9t-7t----7t-9^-|
 D-------------------------9t----------9t----------9t----------9t-------|
 A----------------------------------------------------------------------|
 E----------------------------------------------------------------------|

 E-----------------------------------------|
 B-5/3\5-----5/3\5-----5/3\5-----5/3\5-----|
 G-----------------------------------------|
 D-----------------------------------------|
 A-----------------------------------------|
 E-----------------------------------------|

 tabbed by SimonGuitarist
Добавлено: 18.04.2012
Другие материалы по этой песне:

Страница создана 04.04.2012
http://primanota.ru/dead-by-sunrise/condemned-chords.htm
Привет, Гость.
Предлагаем пройти революционный курс по гитаре.
Подарок от PrimaNota.Ru, забирай!