PrimaNota.ru - самый крупный в мире бесплатный архив песенных текстов, аккордов, табулатур и нот


Dead By April - Stronger - текст песни, таба, видео

Регистрация Запомнить меня
Войти через:  Facebook Google Twitter Vk Yandex Mail.ru

Dead By April - Stronger - текст песни, таба, видео

Печатать
Просмотров: 205
Dead by April
Stronger (solo)
Dead by April (2009)

Pontus uses an 8 string, but I've transcribed it for a 6 string in standard tuning. Adjust the notes
if you need to according to the tuning you're using. You can also mess with which strings you use for
each note, but this is how I play it.

Guitar 1
e|----------------------------------------------------------------------------------------------|
B|------------------------------------------------------------------15-17-/18-17h18p17----------|
G|-----------------------------------------------------17-17----/14--------------------17-------|
D|--14h15-15v----14h15-14-12/14v----14h15-15v----14h15----14------------------------------/17v--|
A|----------------------------------------------------------------------------------------------|
E|----------------------------------------------------------------------------------------------|

e|-----------------------------------------------------15b17--17br15-13-13h15--13-12h13p12------|
B|--------------------------------------15-17-18-15-17-------------------------------------15v--|
G|-----------------------------------14---------------------------------------------------------|
D|------12-14-14PH/15-14h15p14-12---------------------------------------------------------------|
A|--/12-----------------------------------------------------------------------------------------|
E|----------------------------------------------------------------------------------------------|

                   
e|-------------------------------------------------------------------------12-13-12h13p12--|
B|--17PH-13--------/18-18-18---------------------------=-------------13-15-----------------|
G|----------14v--------------15-14--------------------------12-14-15-----------------------|
D|---------------------------------17v----14h15p14-12-14-15--------------------------------|
A|-----------------------------------------------------------------------------------------|
E|-----------------------------------------------------------------------------------------|


e|-----12-13-15-17-13------------------|
B|--15----------------15---------------|
G|-----------------------14------------|
D|--------------------------15---------|
A|-----------------------------17-13v--|
E|-------------------------------------|

Legend:
h = hammer-on
p = pull-off
/ = slide up
\ = slide down
PH = pinch harmonic
v = vibrato
b = bend up
br = bend release
Добавлено: 08.07.2015
Другие материалы по этой песне:

Страница создана 25.03.2012
http://primanota.ru/dead-by-april/stronger-chords.htm
Привет, Гость.
Предлагаем пройти революционный курс по гитаре.
Подарок от PrimaNota.Ru, забирай!