PrimaNota.ru - самый крупный в мире бесплатный архив песенных текстов, аккордов, табулатур и нот


Dead By April - Incomparable - текст песни, таба, видео

Регистрация Запомнить меня
Войти через:  Facebook Google Twitter Vk Yandex Mail.ru

Dead By April - Incomparable - текст песни, таба, видео

Печатать
Просмотров: 615
**PLEASE RATE THIS TAB! THANK YOU!**


SONG:   Incomparable
ARTIST: Dead By April
ALBUM:  Incomparable

TAB BY: Sheppy96
EMAIL:  msheppard96googlemail
TUNING: Drop B (c#-G#-E-B-F#-B)

----------------------------------------------
----------------------------------------------

INTRO/VERSE RIFF:

C#|-------------------------------------|------------------------19------------|
G#|--20--20-20-20--19--19-19-19--17-19--|--20--20-20-20--19--19-----20--20-19--|
E |-------------------------------------|--------------------------------------|
B |-------------------------------------|--------------------------------------|
F#|-------------------------------------|--------------------------------------|
B |-------------------------------------|--------------------------------------|

C#|--------------------------------------|--------------------------------------|
G#|--------------------------------------|--------------------------------------|
E |--------------------------------------|--------------------------------------|
B |--2-----------------------------------|--2-----------------------------------|
F#|--2-(cant work out strumming rhythm)--|--2-----------------------------------|
B |--2-----------------------------------|--2-----------------------------------|

CHORUS CHORDS:

C#|-----------------|
G#|-----------------|
E |----------5---7--|
B |--5---2---5---7--|
F#|--5---2---3---5--|
B |--5---2----------|

BRIDGE:

C#|--------------------|--------------------|
G#|--------------------|--------------------|
E |--5--------------7--|--5--------------5--|
B |--5---5---4--2---7--|--5---5---4--0---5--|
F#|--3---5---4--2---5--|--3---5---4--0---3--|
B |------5---4--2------|------5---4--0------|
Добавлено: 29.04.2012
Другие материалы по этой песне:
  • Аккорды и текст

Страница создана 29.04.2012
http://primanota.ru/dead-by-april/incomparable-chords.htm
Привет, Гость.
Предлагаем пройти революционный курс по гитаре.
Подарок от PrimaNota.Ru, забирай!