PrimaNota.ru - самый крупный в мире бесплатный архив песенных текстов, аккордов, табулатур и нот


Dead Boys - Detention Home - таба, видео

Регистрация Запомнить меня
Войти через:  Facebook Google Twitter Vk Yandex Mail.ru

Dead Boys - Detention Home - таба, видео

Печатать
Просмотров: 157
-------------------------------------------------------------------------------
                             DETENTION HOME - Dead Boys
-------------------------------------------------------------------------------
Tabbed by: Michel de Bruyn
Email: miesisback@hotmail.com

Tuning: Standard
                                         
Intro
                                           
E--------------------------|
B--------------------------|
G------------0-------------|
D----------0---------------| X 1
A--2-2-2h4-----3-2---0--2-2|
E------------------3----0-0|
                           
E---------------------------------------------------|
B---------------------------------------------------|
G-----------0------------2----------0---------------|
D--------0-------------0----------0---0-------------| x 3
A--0-2-3------3-2-1-0-------0-2-3-------3-2-0-2-2-2-|
E---------------------------------------------0-0-0-|

then

E------------------|
B------------------|
G------------------|
D--2~~~~~~---------| x 1
A--2~~~~~~---------|
E--0~~~~~~---------|

E-------------------------------------------2-2-2-2-2----|
B-------------------------------------------3-3-3-3-3----|
G----------------------5-5-5-----2-2-2------2-2-2-2-2----|
D-------2-2-x-x-2-2-x--5-5-5-----2-2-2------0-0-0-0-0----| X 7
A-------2-2-x-x-2-2-x--3-3-3-2-1-0-0-0-2-3---------------|
E---3-2-0------------------------------------------------|

E--------------------------------------------|
B--------------------------------------------|
G----------------------5-5-5-----7-----------|
D-------2-2-x-x-2-2-x--5-5-5-----7-----------| x 1
A-------2-2-x-x-2-2-x--3-3-3-2-1-5-----------|
E---3-2-0------------------------------------|

E--------------------|
B--------------------|
G--------------------| x 1
D--------2--------2--|
A--------2--------2--|
E--3-2-0-0--3-2-0-0--|

E-------------------------------------2-2-2-2-2------|
B-------------------------------------3-3-3-3-3------|
G----------------5-5-5-----2-2-2------2-2-2-2-2------|
D-2-2-x-x-2-2-x--5-5-5-----2-2-2------0-0-0-0-0------| X 7
A-2-2-x-x-2-2-x--3-3-3-2-1-0-0-0-2-3-----------------|
E-0--------------------------------------------------|

E--------------------------------------------|
B--------------------------------------------|
G----------------------5-5-5-----7-----------|
D-------2-2-x-x-2-2-x--5-5-5-----7-----------| x 1
A-------2-2-x-x-2-2-x--3-3-3-2-1-5-----------|
E---3-2-0------------------------------------|

E--------------------|
B--------------------|
G--------------------|
D--------2--------2--| x 1 
A--------2--------2--|
E--3-2-0-0--3-2-0-0--|

E-------------------------------------2-2-2-2-2------|
B-------------------------------------3-3-3-3-3------|
G----------------5-5-5-----2-2-2------2-2-2-2-2------|
D-2-2-x-x-2-2-x--5-5-5-----2-2-2------0-0-0-0-0------| X 7
A-2-2-x-x-2-2-x--3-3-3-2-1-0-0-0-2-3-----------------|
E-0--------------------------------------------------|

E--------------------------------------------|
B--------------------------------------------|
G----------------------5-5-5-----7-----------|
D-------2-2-x-x-2-2-x--5-5-5-----7-----------| x 1
A-------2-2-x-x-2-2-x--3-3-3-2-1-5-----------|
E---3-2-0------------------------------------|
                                                 
E---------------------------------------------------|
B---------------------------------------------------|
G--------------0------------2----------0------------|
D-----------0-------------0----------0---0----------| X 4
A-2-2-0-2-3------3-2-1-0-------0-2-3-------3-2-0----|
E-0-0-----------------------------------------------|

E-------------------------------------------------|
B-------------------------------------------------|
G--4-4-4-4-4--4-4-4-4-4--4-4-4-4-4--4-4-4---------|
D--0-2-2-2-2--0-2-2-2-2--0-2-2-2-2--0-2-2------0--| X 2
A------------------------------------------0h2----|
E-------------------------------------------------|
end

Enjoy!

| /  slide up
| \  slide down
| h  hammer-on
| p  pull-off
| ~  vibrato
| +  harmonic
| x  Mute note
===============================================================================
Добавлено: 25.02.2012
Другие материалы по этой песне:
  • Аккорды и текст

Страница создана 25.02.2012
http://primanota.ru/dead-boys/detention-home-chords.htm
Привет, Гость.
Предлагаем пройти революционный курс по гитаре.
Подарок от PrimaNota.Ru, забирай!