PrimaNota.ru - самый крупный в мире бесплатный архив песенных текстов, аккордов, табулатур и нот


Dead Boys - Dead And Alive - текст песни, таба, видео

Регистрация Запомнить меня
Войти через:  Facebook Google Twitter Vk Yandex Mail.ru

Dead Boys - Dead And Alive - текст песни, таба, видео

Печатать
Просмотров: 137
-------------------------------------------------------------------------------
                             DEAD AND ALIVE - Dead Boys
-------------------------------------------------------------------------------
Tabbed by: Michel de Bruyn
Email: miesisback@hotmail.com

Tuning: Standard


E-----------------------------------------------------|
B-----------------------------------------------------|
G---7-7-7-7-7-2-2-2-2-2---5-5---5-----10-10----10-----|
D---7-7-7-7-7-2-2-2-2-2---5-5-5-5-5---10-10-10-10-10--| x 1
A---5-5-5-5-5-0-0-0-0-0---3-3-5-3-5---8--8--10-8--10--|
E-----------------------------3---3---------8-----8---|

E--------------------------------- |
B----------------------------------|
G--2-2-2-2-2-2-2---5-x-x-5--5-5----|
D--2-2-2-2-2-2-2---5-x-x-5--5-5----| x 6
A--0-0-0-0-0-0-0---3-x-x-3--3-3----|
E----------------------------------|

E-----------------------------------------------------|
B-----------------------------------------------------|
G------------5-5-x-5-5-------------5-5-x-5-5---2-2-x-2|
D---5-5-x-5--5-5-x-5-5--5-3-3-x-3--5-5-x-5-5-5-2-2-x-2| x 1
A---5-5-x-5--3-3-x-3-3--5-3-3-x-3--3-3-x-3-3-5-0-0-x-0|
E---3-3-x-3-------------3-1-1-x-1------------3--------|


E--------------------------------- |
B----------------------------------|
G--2-2-2-2-2-2-2---5-x-x-5--5-5----|
D--2-2-2-2-2-2-2---5-x-x-5--5-5----| x 6
A--0-0-0-0-0-0-0---3-x-x-3--3-3----|
E----------------------------------|

E---------------------------------------------------------|
B---------------------------------------------------------|
G----------5-5-x-5-5-------------5-5-x-5-5---2-2-x-2-2-2-2|
D-5-5-x-5--5-5-x-5-5--5-3-3-x-3--5-5-x-5-5-5-2-2-x-2-2-2-2| x 1
A-5-5-x-5--3-3-x-3-3--5-3-3-x-3--3-3-x-3-3-5-0-0-x-0-0-0-0|
E-3-3-x-3-------------3-1-1-x-1------------3--------------|

E--------------------------------|
B--------------------------------|
G--7-7---7--------------10-10-10-|
D--7-7-7-7-7---10-10-10-10-10-10-| x 3
A--5-5-7-5-7---10-10-10-8--8--8--|
E------5---5---8--8--8-----------|


E--------------------------------|
B--------------------------------|
G--7-7---7------10-10----10------| x 1
D--7-7-7-7-7----10-10-10-10-10---|
A--5-5-7-5-7----8--8--10-8--10---|
E------5---5----------8-----8----|

E--------------------------------- |
B----------------------------------|
G--2-2-2-2-2-2-2---5-x-x-5--5-5----|
D--2-2-2-2-2-2-2---5-x-x-5--5-5----| x 6
A--0-0-0-0-0-0-0---3-x-x-3--3-3----|
E----------------------------------|

E--------------------------------|
B--------------------------------|
G--7-7---7--------------10-10-10-|
D--7-7-7-7-7---10-10-10-10-10-10-| x 2
A--5-5-7-5-7---10-10-10-8--8--8--|
E------5---5---8--8--8-----------|


E----------------------------------|
B----------------------------------|
G--7-7---7------10-10----10-----2-x| x 1
D--7-7-7-7-7----10-10-10-10-10--2-x|
A--5-5-7-5-7----8--8--10-8--10--0-x|
E------5---5----------8-----8------|
end

Enjoy!

| /  slide up
| \  slide down
| h  hammer-on
| p  pull-off
| ~  vibrato
| +  harmonic
| x  Mute note
===============================================================================
Добавлено: 24.05.2012
Другие материалы по этой песне:
  • Аккорды и текст

Страница создана 24.05.2012
http://primanota.ru/dead-boys/dead-and-alive-chords.htm
Привет, Гость.
Предлагаем пройти революционный курс по гитаре.
Подарок от PrimaNota.Ru, забирай!