PrimaNota.ru - самый крупный в мире бесплатный архив песенных текстов, аккордов, табулатур и нот


Dead Blue Sky - Symptoms Of An Unwanted Emotion - таба, видео

Регистрация Запомнить меня
Войти через:  Facebook Google Twitter Vk Yandex Mail.ru

Dead Blue Sky - Symptoms Of An Unwanted Emotion - таба, видео

Печатать
Просмотров: 64
Opening riff.

d|--------------------------------------------4--------4--------4--------4-----|
A|-10--9-----9--7--9--10--9------9--7--10-----------5-----5-----------5-----5--|
F|--------11-----------------11------------------------------------------------|
C|-----------------------------------------4-----4-----------4-----4-----------|
G|-----------------------------------------------------------------------------|
D|-----------------------------------------------------------------------------|

d|--------------------------------------------4--------4--------4--------4-----|
A|-----------------------------------------------5-----------------5-----------|
F|--------------------------------------------------------6-----------------6--|
C|-----------------------------------------4--------4--------4--------4--------|
G|-----------------------------------------------------------------------------|
D|-----------------------------------------------------------------------------|

Play this for the first time only

d|--------------------------------------------------------------------------------------|
A|-------------------10--9--9h10-----9h10------10--9---------------7--5-----------------|
F|-6h9p6--6h9p6--6h9--------------9--------11---------9---------------------------------|
C|-------------------------------------------------------11--9--7--------7--------------|
G|----------------------------------------------------------------------------9h11-9-7--|
D|--------------------------------------------------------------------------------------|

Guitar 1 (Play on second time and every other time)

d|-----9----------------------------------------------------------------------------------------------------|
A|-10-----9--------------------10--9--9h10-----9h10------10--9---------------7--5---------------------------|
F|-----------6h9p6--6h9p6--6h9--------------9--------13---------9-------------------------------------------|
C|-----------------------------------------------------------------11--9--7--------7------------------------|
G|-------------------------------------------------------------------------------------9h11-9-7--9--7--0----|
D|--------------------------------------------------------------------------------------------------------7-|

Guitar 2

d|----------------------------------------------------------------------------------------------------------|
A|-------------------------------------------------------------------------------------12-14-15-14-12h14-10-|
F|-6--4--2--------------------------------------------------------------------------------------------------|
C|----------4-----------------------------------------------------------------------------------------------|
G|----------------------------------------------------------------------------------------------------------|
D|----------------------------------------------------------------------------------------------------------|

d|-----------------------------------------------------------------------------------------|
A|-9--------------------10--9--9h10-----9h10------10--9---------------7--5-----------------|
F|---6h9p6--6h9p6--6h9---------------9--------11---------9---------------------------------|
C|----------------------------------------------------------11--9--7--------7--------------|
G|-------------------------------------------------------------------------------9h11-9-7--|
D|-----------------------------------------------------------------------------------------|
Добавлено: 21.06.2016
Другие материалы по этой песне:
  • Аккорды и текст

Страница создана 21.06.2016
http://primanota.ru/dead-blue-sky/symptoms-of-an-unwanted-emotion-chords.htm
Привет, Гость.
Предлагаем пройти революционный курс по гитаре.
Подарок от PrimaNota.Ru, забирай!