PrimaNota.ru - самый крупный в мире бесплатный архив песенных текстов, аккордов, табулатур и нот


Dead And Divine - The End Is The Beginning Is The End - таба, видео

Регистрация Запомнить меня
Войти через:  Facebook Google Twitter Vk Yandex Mail.ru

Dead And Divine - The End Is The Beginning Is The End - таба, видео

Печатать
Просмотров: 91
-------------------------------------------------------------------------------
           The End is the Beginning is the End - Dead and Divine
-------------------------------------------------------------------------------
Tabbed by: Zack Ritchie - Kitchener
Email: z.ritchie@gmx.com

Tuning: Drop C
                                     
d|-6-6-6-6-6-6-6-6--7-7-7-7-7-7-7-7----|
A|-5-5-5-5-5-5-5-5--5-5-5-5-5-5-5-5----|
F|-------------------------------------|  x2
C|-------------------------------------|
G|-------------------------------------|
C|-------------------------------------|

d|--------------------------------------------|     d|------------------|
A|--------------------------------------------|     A|------------------|
F|--------------------------------------------| x3  F|------------------|   
C|--------------------------------------------|     C|------------------|
G|--------------------------------------------|     G|------------------|
C|--8-5-5-5-5-5-5-5--8-9-2-2-2-2-2-2-2--------|     C|-5-7-8-9-8-7-5-2--|

d|------------------------------------|       d|-----------------|
A|------------------------------------|       A|-----------------|
F|------------------------------------|  x3   F|-----------------|
C|------------------------------------|       C|-----------------|
G|------------------------------------|       G|-----------------|
C|-2-2-2-2-2-2-2-2--5-5-5-5--8-8-8-8--|       C|-2-2-2-2-2-2-2-2-|

d|--------------------------------------------|     d|--------------------------|
A|--------------------------------------------|     A|--------------------5-----|  x2
F|--------------------------------------------| x3  F|--------------------4-----| 4,5 only  
C|--------------------------------------------|     C|-5-5-5-5-5-5-5---2--------| on first
G|--------------------------------------------|     G|-5-5-5-5-5-5-5---2--------| time
C|--8-5-5-5-5-5-5-5-5--8-9-2-2-2-2-2-2-2------|     C|-5-5-5-5-5-5-5---2--------|

Chorus
d|---------------------------------------------------------------------------|
A|-10-10-1010-10-10-1010-10101010-5-5-55-5-5-55-5555-------------------------|
F|-9--9--9-9--9--9--9-9--9-9-9-9--4-4-44-4-4-44-4444--7-7-77-7-7-77-7777-----|
C|-7--7--7-7--7--7--7-7--7-7-7-7--2-2-22-2-2-22-2222--7-7-77-7-7-77-7777-----|
G|-7--7--7-7--7--7--7-7--7-7-7-7--2-2-22-2-2-22-2222--5-5-55-5-5-55-5555-----|
C|-7--7--7-7--7--7--7-7--7-7-7-7--2-2-22-2-2-22-2222-------------------------|

d|--------------------------------|
A|-10-10-1010-10-10-1010-x-x-x-x--|
F|-9--9--9-9--9--9--9-9--x-x-x-x--|
C|-7--7--7-7--7--7--7-7--x-x-x-x--|
G|-7--7--7-7--7--7--7-7--x-x-x-x--| 
C|-7--7--7-7--7--7--7-7--x-x-x-x--|

d|---------------------------------------------------------------------------|
A|-10-10-1010-10-10-1010-10101010-5-5-55-5-5-55-5555-------------------------|
F|-9--9--9-9--9--9--9-9--9-9-9-9--4-4-44-4-4-44-4444--7-7-77-7-7-77-7777-----|
C|-7--7--7-7--7--7--7-7--7-7-7-7--2-2-22-2-2-22-2222--7-7-77-7-7-77-7777-----|
G|-7--7--7-7--7--7--7-7--7-7-7-7--2-2-22-2-2-22-2222--5-5-55-5-5-55-5555-----|
C|-7--7--7-7--7--7--7-7--7-7-7-7--2-2-22-2-2-22-2222-------------------------|



d|--------------------------------------------------------------|
A|-1010101010101010----5--------------------5-------------------|
F|-9-9-9-9-9-9-9-9-----4--------------------4-------------------|
C|-7-7-7-7-7-7-7-7--2--------------------2----------------------|
G|-7-7-7-7-7-7-7-7--2--------------------2----------------------|
C|-7-7-7-7-7-7-7-7--2------5-7-8-9-8-7-5-2-----5-7-8-9-8-7-5----|

d|----------| |----------------------------------------------|
A|---HOLD---| |----------------------------------------------|  x3
F|----------| |----------------------------------------------|
C|---TILL---| |----------------------------------------------|
G|----------| |----------------------------------------------|
C|---1:23---| |--12\X----8-5-5-5-5-5-5--8-9-2-2-2-2-2-2-2----|

d|--8-8-8-8-8-8-8-7~--|   
A|--5-5-5-5-5-5-5-5~--|x2 
F|--------------------|   
C|--------------------|   
G|--------------------|   
C|--------------------|   

Chorus
d|---------------------------------------------------------------------------|
A|-10-10-1010-10-10-1010-10101010-5-5-55-5-5-55-5555-------------------------|
F|-9--9--9-9--9--9--9-9--9-9-9-9--4-4-44-4-4-44-4444--7-7-77-7-7-77-7777-----|
C|-7--7--7-7--7--7--7-7--7-7-7-7--2-2-22-2-2-22-2222--7-7-77-7-7-77-7777-----|
G|-7--7--7-7--7--7--7-7--7-7-7-7--2-2-22-2-2-22-2222--5-5-55-5-5-55-5555-----|
C|-7--7--7-7--7--7--7-7--7-7-7-7--2-2-22-2-2-22-2222-------------------------|

d|--------------------------------|
A|-10-10-1010-10-10-1010-x-x-x-x--|
F|-9--9--9-9--9--9--9-9--x-x-x-x--|
C|-7--7--7-7--7--7--7-7--x-x-x-x--|
G|-7--7--7-7--7--7--7-7--x-x-x-x--| 
C|-7--7--7-7--7--7--7-7--x-x-x-x--|

d|---------------------------------------------------------------------------|
A|-10-10-1010-10-10-1010-10101010-5-5-55-5-5-55-5555-------------------------|
F|-9--9--9-9--9--9--9-9--9-9-9-9--4-4-44-4-4-44-4444--7-7-77-7-7-77-7777-----|
C|-7--7--7-7--7--7--7-7--7-7-7-7--2-2-22-2-2-22-2222--7-7-77-7-7-77-7777-----|
G|-7--7--7-7--7--7--7-7--7-7-7-7--2-2-22-2-2-22-2222--5-5-55-5-5-55-5555-----|
C|-7--7--7-7--7--7--7-7--7-7-7-7--2-2-22-2-2-22-2222-------------------------|

d|--------------------------|  |-6-6-6-6-6-6-6-6-7-7-7-7-7-7-7-7--|
A|-1010101010101010----5----|  |-5-5-5-5-5-5-5-5-5-5-5-5-5-5-5-5--| x4
F|-9-9-9-9-9-9-9-9-----4----|  |----------------------------------| fade in on 3
C|-7-7-7-7-7-7-7-7--2-------|  |----------------------------------|
G|-7-7-7-7-7-7-7-7--2-------|  |----------------------------------|
C|-7-7-7-7-7-7-7-7--2-------|  |----------------------------------|
                                 . . . . . . . . . . . . . . . .

d|------------------------------|   |-------------------|
A|------------------------------|x3 |---------------5---|
F|------------------------------|   |---------------4---|
C|------------------------------|   |-5-5-5-5-5-5-5-2---|
G|------------------------------|   |-5-5-5-5-5-5-5-2---|
C|-8-8-8-8-8-8-8-9-2-2-2-2-2-2--|   |-5-5-5-5-5-5-5-2---|

d|---------------------------------------|
A|-8--11-5---8--11-5---8--11-5---8--11---|
F|-7--10-4---7--10-4---7--10-4---7--10---|
C|-5--8--2---5--8--2---5--8--2---5--8----|
G|-5--8--2---5--8--2---5--8--2---5--8----|
C|-5--8--2---5--8--2---5--8--2---5--8----|

Chorus
d|---------------------------------------------------------------------------|
A|-10-10-1010-10-10-1010-10101010-5-5-55-5-5-55-5555-------------------------|
F|-9--9--9-9--9--9--9-9--9-9-9-9--4-4-44-4-4-44-4444--7-7-77-7-7-77-7777-----|
C|-7--7--7-7--7--7--7-7--7-7-7-7--2-2-22-2-2-22-2222--7-7-77-7-7-77-7777-----|
G|-7--7--7-7--7--7--7-7--7-7-7-7--2-2-22-2-2-22-2222--5-5-55-5-5-55-5555-----|
C|-7--7--7-7--7--7--7-7--7-7-7-7--2-2-22-2-2-22-2222-------------------------|

d|--------------------------------|
A|-10-10-1010-10-10-1010-x-x-x-x--|
F|-9--9--9-9--9--9--9-9--x-x-x-x--|
C|-7--7--7-7--7--7--7-7--x-x-x-x--|
G|-7--7--7-7--7--7--7-7--x-x-x-x--| 
C|-7--7--7-7--7--7--7-7--x-x-x-x--|

d|---------------------------------------------------------------------------|
A|-10-10-1010-10-10-1010-10101010-5-5-55-5-5-55-5555-------------------------|
F|-9--9--9-9--9--9--9-9--9-9-9-9--4-4-44-4-4-44-4444--7-7-77-7-7-77-7777-----|
C|-7--7--7-7--7--7--7-7--7-7-7-7--2-2-22-2-2-22-2222--7-7-77-7-7-77-7777-----|
G|-7--7--7-7--7--7--7-7--7-7-7-7--2-2-22-2-2-22-2222--5-5-55-5-5-55-5555-----|
C|-7--7--7-7--7--7--7-7--7-7-7-7--2-2-22-2-2-22-2222-------------------------|

d|--------------------------------------------------------------|
A|-1010101010101010----5--------------------5-------------------|
F|-9-9-9-9-9-9-9-9-----4--------------------4-------------------|
C|-7-7-7-7-7-7-7-7--2--------------------2----------------------|
G|-7-7-7-7-7-7-7-7--2--------------------2----------------------|
C|-7-7-7-7-7-7-7-7--2------5-7-8-9-8-7-5-2-----5-7-8-9-8-7-5----|

d|---| |------------------------------|  |---------|
A|---| |------------------------------|x4|---------|
F|---| |------------------------------|  |---------|
C|---| |------------------------------|  |---------|
G|---| |------------------------------|  |---------|
C|-0-| |-8-8-8-8-8-8-8--9-2-2-2-2-2-2-|  |-0-0-0-0-|
   .                                       . . . .
d|------------------------------|  |--------------------|
A|------------------------------|x3|-----------------5--|
F|------------------------------|  |-----------------4--|
C|------------------------------|  |-----------------2--|
G|------------------------------|  |-----------------2--|
C|-8-8-8-8-8-8-8--9-2-2-2-2-2-2-|  |--5-7-8-9-8-7-5--2--|


************************************

| /   slide up
| \   slide down
| h   hammer-on
| p   pull-off
| ~   vibrato
| +   harmonic
| x   Mute note
| b   Bend
| pb  Pre-bend
| br  Bend release
| pbr Pre-bend release
| brb Bend release bend

************************************
Добавлено: 17.08.2013
Другие материалы по этой песне:
  • Аккорды и текст

Страница создана 17.08.2013
http://primanota.ru/dead-and-divine/the-end-is-the-beginning-is-the-end-chords.htm
Привет, Гость.
Предлагаем пройти революционный курс по гитаре.
Подарок от PrimaNota.Ru, забирай!