PrimaNota.ru - самый крупный в мире бесплатный архив песенных текстов, аккордов, табулатур и нот


Dead And Divine - Like Wolves - таба, видео

Регистрация Запомнить меня
Войти через:  Facebook Google Twitter Vk Yandex Mail.ru

Dead And Divine - Like Wolves - таба, видео

Печатать
Просмотров: 101
Уроки эстрадного вокала в Санкт-Петербурге
Dead And Divine
Like Wolves
tuning:Drop C

---------------------------------------------------------------------|
---------------------------------------------------------------------|
---------------------------------------------------------------------|
-2-22-xxxxxx-2-22-xxxxxx-2-33-xxxxxx-2-33-xxxxxx-33-33---------------|
-2-22-xxxxxx-2-22-xxxxxx-2-33-xxxxxx-2-33-xxxxxx-33-33---------------|
-2-22-xxxxxx-2-22-xxxxxx-2-33-xxxxxx-2-33-xxxxxx-33-33---------------|

---------------------------------------------------------------------|
---------------------------------------------------------------------|
-------6666666666------6666666666-----101010101010-----101010101010/-|
-2-22--xxxxxxxxxx-2-22-xxxxxxxxxx-2-33-xxxxxxxxxx--2-33-xxxxxxxxxxx--|
-2-22--4444444444-2-22-4444444444-2-33-8888888888--2-33-88888888888/-|
-2-22-------------2-22------------2-33-------------2-33--------------|

---------------------------------------------------------------------|
---------------------------------------------------------------------|
-------------7777---7-------------101010---10------------------------|
-0-2-0-2/--0-xxxx-0-x--0-2-0-2/--0-xxxx--0-x-------------------------|
-0-2-0-2/--0-5555-0-5--0-2-0-2/--0-8888--0-8-------------------------|
-0-2-0-2/--0------0----0-2-0-2/--0-------0---------------------------|
 *   *     *      *    *         *       *
---------------------------------------------------------------------|
---------------------------------------------------------------------|
-------------7777---7--------------101010--101010-10101010-----------|
-0-2-0-2/--0-xxxx-0-x--0-2-0-2/--0-xxxxx---xxxxx---xxxxxx------------|
-0-2-0-2/--0-5555-0-5--0-2-0-2/--0-88888---88888---888888---0~-------|
-0-2-0-2/--0------0----0-2-0-2/--0--------------------------0~-------|
 *   *     *      *    *   *     *                          *
--------------------------------0--------------------------------0-----0-|
--------------------------------5--------------------------------5-----5-|
-------------------------------------------------------------------------|
-------------------------------------------------------------------------|
-------------------------------------------------------------------------|
-2222-0000-2222-0-2222-0000-2-5---2222-0000-2222-0-2222-0000-2-5---2-5---|

-----0-----0~-------------------------------------------------------|
-----5-----5~-------------------------------------------------------|
--------------------------------------------------------------------|
--------------------------------------------------------------------|
--------------------------------------------------------------------|
-2-5---2-5----------------------------------------------------------|

--------------------------------------------------------------------|
--------------------------------------------------------------------|
--------------------------------------------------------------------|
-2-22-xxxxxx-2-22-xxxxxx-2-33-xxxxxx-2-33-xxxxxx-33-33--------------|
-2-22-xxxxxx-2-22-xxxxxx-2-33-xxxxxx-2-33-xxxxxx-33-33--------------|
-2-22-xxxxxx-2-22-xxxxxx-2-33-xxxxxx-2-33-xxxxxx-33-33--------------|

-------------------------------------------------------------------------|
-------------------------------------------------------------------------|
-------6666666666------6666666666-----101010101010-----10101010--10--10/-|
-2-22--xxxxxxxxxx-2-22-xxxxxxxxxx-2-33-xxxxxxxxxx--2-33-xxxxx---0-x-0-x--|
-2-22--4444444444-2-22-4444444444-2-33-8888888888--2-33-88888---0-8-0-8/-|
-2-22-------------2-22------------2-33-------------2-33---------0---0----|
                                                                *   *
--------------------------------------------------------------------|
--------------------------------------------------------------------|
-------------7777---7-------------101010---10-----------------------|
-0-2-0-2/--0-xxxx-0-x--0-2-0-2/--0-xxxx--0-x------------------------|
-0-2-0-2/--0-5555-0-5--0-2-0-2/--0-8888--0-8------------------------|
-0-2-0-2/--0------0----0-2-0-2/--0-------0--------------------------|
 *   *     *      *    *         *       *
--------------------------------------------------------------------|
--------------------------------------------------------------------|
-------------7777---7--------------9999-9999-9999-------------------|
-0-2-0-2/--0-xxxx-0-x--0-2-0-2/--0-xxxx-xxxx-xxxx-------------------|
-0-2-0-2/--0-5555-0-5--0-2-0-2/--0-7777-7777-7777-0~----------------|
-0-2-0-2/--0------0----0-2-0-2/--0----------------0~----------------|
 *   *     *      *    *   *     *                *
-------------------------5~----5~----5~----4~----3~---------------------|
-------------------------5~----5~----5~----4~----3~---------------------|
-66-7~-66-7~-66-7~-66-7--7~----7~----7~----6'----5~---6b---6b---6b---6b-|
-xx-x--xx-x--xx-x--xx-x--5~--5~---5~----4~----3~------x----x----x----x--|
-44-5~-44-5~-44-5~-44-5--5~--5~---5~----4~----3~------4b---4b---4b---4b-|
-------------------------5~--5~---5~----4~----3~----0----0----0----0----|

--------------------------------------------------------------------|
--------------------------------------------------------------------|
--------------------------------------------------------------------|
--------------------------------------------------------------------|
--------------------------------------------------------------------|
-02222--------------------------------------------------------------|
Добавлено: 17.12.2013
Другие материалы по этой песне:
  • Аккорды и текст

Страница создана 17.12.2013
http://primanota.ru/dead-and-divine/like-wolves-chords.htm
Привет, Гость.
Предлагаем пройти революционный курс по гитаре.
Подарок от PrimaNota.Ru, забирай!