PrimaNota.ru - самый крупный в мире бесплатный архив песенных текстов, аккордов, табулатур и нот


Dead And Divine - Get Down With Your Bad Self - таба, видео

Регистрация Запомнить меня
Войти через:  Facebook Google Twitter Vk Yandex Mail.ru

Dead And Divine - Get Down With Your Bad Self - таба, видео

Печатать
Просмотров: 100
----------------------------------------------------------------------------
			     Get Down With Your Bad Self - Dead and Divine
----------------------------------------------------------------------------
Tabbed by: B-rebs
Email:

Tuning: Drop D

http://www.youtube.com/watch?v=MNRDNGRLBQg (video of me playing it if that helps)

I'm pretty sure the tab is mostly correct

First chord is played with a slow upstroke

e|--------------------------------------------------------------------------|
B|-5------------------------------------------------------------------------|
G|-7------------------------------------------------------------------------|
D|-7------------------------------------------------------------------------|
A|-0------------------------------------------------------------------------|
E|-0--0000000000000-3333-000000000000-5555-333333333333-5555-3333333--------|

e|---------------------------------------------------------------------------|
B|---------------------------------------------------------------------------|
G|---------------------------------------------------------------------------|
D|---------------------------------------------------------------------------|
A|-3-3-5h6-0-3---------------------------------------------------------------|
E|---3-5h6-0-3---------------------------------------------------------------|

'What's left of me, sits here, burning...'

e|--------------------------------------------------------------------------|
B|----------------------------------------------------------------5---------|
G|----------------------------------------------------------------x---------|
D|----------------------------------------------------------------3---------|
A|-0-0-----0-0----0-0-0----0-0-0-0-0----3-3---3-3---3-3-3---3-3-3-3---------|
E|-0-0-----0-0----0-0-0----0-0-0-0-0----3-3---3-3---3-3-3---3-3-3-3---------|

'It really all comes down, to my love, for misfortune...'

play this part twice

(riff A

e|--------------------------------------------------------------------------|
B|-----------------------------------------------------------6--------------|
G|-----------------------------------------------------------9--------------|
D|-------------------5-------------------------------5-------7--------------|
A|-0-3h5---3~----3h5---5~-----3h5----0-3h5---3~--3h5---5~----0--------------|
E|-0-----0-----0-----------00-3h5----0-----0---0----------00----------------|

'Watch your mouth!'

e|--------------------------------------------------------------------------|
B|-----------6---------6-6-6--6-6-6-----------------------------------------|
G|-----------9---------9-9-9--9-9-9-----------------------------------------|
D|-----------7---------7-7-7--7-7-7-----------------------------------------|
A|-0------0--0--0------0-0-0--0-0-0-----------------------------------------|
E|-0------0-----0-----------------------------------------------------------|

'Cause I'm the son of a gun...'

(riff B)

e|--------------------------------------------------------------------------|
B|--------------------------------------------------10-10-10-10-10-10-10----|
G|--------------------------------------------------13-13-13-13-13-13-13----|
D|--------------------------------------------------------------------------|
A|-3-00-3-0----3-00-3-0--------3-00-3-0---3-00-3-0--------------------------|
E|-3-00-3-0----3-00-3-0--------3-00-3-0---3-00-3-0--------------------------|

e|--------------------------------------------------------------------------|
B|--------------------------------------------------------------------------|
G|--------------------------------------------------------------------------|
D|--------------------------------------------------------------------------|
A|-3-00-3-0----3-00-3-0----00-00----3-00-3-0-----3-00-3-0---3p0-0-----------|
E|-3-00-3-0----3-00-3-0----00-00----3-00-3-0-----3-00-3-0---3p0-0-----------|

'I have a way with failure...'

(riff C)

e|--------------------------------------------------------------------------|
B|--------------------------------------------------------------------------|
G|--------------------------------------------------------------------------|
D|--------------------------------------------------------------------------|
A|--8--55555555555555--8--55555555555-77--333333333333333-77777777--5555-77-|
E|--8--55555555555555--8--55555555555-77--333333333333333-77777777--5555-77-|

e|--------------------------------------------------------------------------|
B|----------------------------------------------------------------33333333--|
G|----------------------------------------------------------------22222222--|
D|----------------------------------------------------------------00000000--|
A|--8--x5x5x5x5x5x555--8-x5x5x5x----------3-5-0-3-33333333333333--00000000--|
E|--8--x5x5x5x5x5x555--8-x5x5x5x--3-4-5-0-3-5-0-3-33333333333333--00000000--|

e|--------------------------------------------------------------------------|
B|--------------------------------------------------------------------------|
G|--------------------------------------------------------------------------|
D|--------------------------------------------------------------------------|
A|-3-3-3-3-5-5-5-x----------------------------------------------------------|
E|-3-3-3-3-5-5-5-x----------------------------------------------------------|

'Relax come on, relax and give in...'

e|--------------------------------------------------------------------------|
B|--------------------------------------------------------------------------|
G|--------------------------------------------------------------------------|
D|------------3~------6-3------6-3---3~-------6-3----3-----------6-3---3----|
A|-0-0--3-4-5-----0-0-----5-0------5---5-0-0-------5---5----3-3------5---5--|
E|-0-0------------0-0-------0------------0-0----------------3-3-------------|

e|--------------------------------------------------------------------------|
B|---------------------------6----------------------------------------------|
G|---------------------------9----------------------------------------------|
D|----6-3--------6-3---3-----0----------------------------------------------|
A|-3-------5--3------5---5---0----------------------------------------------|
E|-3----------3--------------0----------------------------------------------|

repeat riff A

then play this twice
'It's a shame, you tried so hard just for a girl'
e|--------------------------------------------------------------------------|
B|--------------------------------------------5-5-5-5-5---5-5-5-5-5---------|
G|--------------------------------------------9-9-9-9-9---9-9-9-9-9---------|
D|--------------------------------------------7-7-7-7-7---7-7-7-7-7---------|
A|-0-/3-0--/6-0--/3--00-6-00-6--0-/3-0-/6-0---------------------------------|
E|-0-/3-0--/7-0--/3--00-7-00-7--0-/3-0-/7-0---------------------------------|

'And it's a shame, I can't remember anything'

e|--------------------------------------------------------------------------|
B|--------------------------------------------------------------------------|
G|--------------------------------------------------------------------------|
D|-----------2------------2-----2-----------2----------2-----2--------------|
A|-0-0---00000--0-0---00000-00000--0-0--00000--0-0-00000-00000--------------|
E|-0-0----------0-0----------------0-0---------0-0--------------------------|

then play riff C

Then this riff a bunch of times


e|--------------------------------------------------------------------------|
B|--------------------------------------------------------------------------|
G|-5---5-----5---5----------------------------------------------------------|
D|-4---4-----4---4----------------------------------------------------------|
A|-3---3-----3---3----------------------------------------------------------|
E|---0---0-0---0---0-0-0-0-0-0-0-0------------------------------------------|

Then finish the song with riff B

| /  slide up
| \  slide down
| h  hammer-on
| p  pull-off
| ~  vibrato
| +  harmonic
| x  Mute note
============================================================================
Добавлено: 04.08.2013
Другие материалы по этой песне:
  • Аккорды и текст

Страница создана 04.08.2013
http://primanota.ru/dead-and-divine/get-down-with-your-bad-self-chords.htm
Привет, Гость.
Предлагаем пройти революционный курс по гитаре.
Подарок от PrimaNota.Ru, забирай!