PrimaNota.ru - самый крупный в мире бесплатный архив песенных текстов, аккордов, табулатур и нот


Dead And Divine - Creature - аккорды и текст, таба, видео

Регистрация Запомнить меня
Войти через:  Facebook Google Twitter Vk Yandex Mail.ru

Dead And Divine - Creature - аккорды и текст, таба, видео

Печатать
Просмотров: 78
Creature
Dead And Divine
tuning: Drop C
have a nice day
0:00-0:33
|--------------------------------------------------------------|
|--------------------------------------------------------------|
|-----------------------------------------------------77---777-|
|-----------------------------------------------------xx---xxx-|
|---------------------------------------------------x-55---555-|
|-4--1-1-xx-1-1-1-1-1-1-xx-1-1-1-00-4—-1-1-xx-1-1-1-x----0-----|
                             ..                      .
|--------------------------------------------------------------|
|--------------------------------------------------------------|
|-----------------------------------------------------77---777-|
|-----------------------------------------------------xx---xxx-|
|---------------------------------------------------x-55---555-|
|-4--1-1-xx-1-1-1-1-1-1-xx-1-1-1-00-4—-1-1-xx-1-1-1-x----0-----|
                                 ..                      .
|--------------------------------------------------------------|
|--------------------------------------------------------------|
|-----------------------------------------------------77---777-|
|-----------------------------------------------------xx---xxx-|
|---------------------------------------------------x-55---555-|
|-4--1-1-xx-1-1-1-1-1-1-xx-1-1-1-00-4—-1-1-xx-1-1-1-x----0-----|
                                 ..                      .
|--------------------------------------------------------------|
|--------------------------------------------------------------|
|-----------------------------------------------------77---777-|
|-----------------------------------------------------xx---xxx-|
|---------------------------------------------------x-55---555-|
|-4--1-1-xx-1-1-1-1-1-1-xx-1-1-1-00-4—-1-1-xx-1-1-1-x----0-----|
                                 ..                      .
|-------------|
|-------------|
|-77---777----|
|-xx---xxx----|
|-55---555----|
|----0--------|
     .

0:34-0:49
|----------------------------------|
|----------------------------------|
|----------------------------------|
|-4-x-1--xx--4-1-4—-1-1--xx-xx-xx--|
|-4-x-1--xx--4-1-4—-1-1--xx-xx-xx--|
|-4-x-1--xx--4-1-4—-1-1--xx-xx-xx--|

----------------------------------|
----------------------------------|
-------------------------777777---|
-xx-4-x-1-xx--4-1-4--11--xxxxxx---|
-xx-4-x-1-xx--4-1-4--11--555555---|
-xx-4-x-1-xx--4-1-4--11-----------|

|----------------------------------|
|----------------------------------|
|----------------------------------|
|-4-x-1--xx--4-1-4—-1-1--xx-xx-xx--|
|-4-x-1--xx--4-1-4—-1-1--xx-xx-xx--|
|-4-x-1--xx--4-1-4—-1-1--xx-xx-xx--|

----------------------------------|
----------------------------------|
-------------------------777777---|
-xx-4-x-1-xx--4-1-4--11--xxxxxx---|
-xx-4-x-1-xx--4-1-4--11--555555---|
-xx-4-x-1-xx--4-1-4--11-----------|


0:50-1:05
|------------------------------------------------|
|------------------------------------------------|
|--------------------------------------------66--|
|--------------------------------------------66--|
|-0-0-0----0---0----0-0-0—5h7p5h7p5----------44--|
|-0-0-0----0---0----0-0-0-----------8—-0-0--0----|
                                            .
|------------------------------------------------|
|------------------------------------------------|
|--------------------------------------------66--|
|--------------------------------------------66--|
|-0-0-0----0---0----0-0-0—5h7p5h7p5----------44--|
|-0-0-0----0---0----0-0-0-----------8—-0-0--0----|


1:06-1:18
|-------xxxx------xxxxxx--------xxxx---------|
|-------xxxx------xxxxxx--------xxxx---------|
|-------xxxx------xxxxxx--------xxxx---------|
|-------xxxx------xxxxxx--------xxxx---------|
|-0-0-0-xxxx--0-0-xxxxxx--0-0-0-xxxx--0-0-00-|
|-0-0-0-xxxx--0-0-xxxxxx--0-0-0-xxxx--0-0-00-|

|-------xxxx------xxxxxx------------------------------|
|-------xxxx------xxxxxx------------------------------|
|-------xxxx------xxxxxx--------------------------66--|
|-------xxxx------xxxxxx--------------------------66--|
|-0-0-0-xxxx--0-0-xxxxxx--0-0-0—5h7p5h7p5---------44--|
|-0-0-0-xxxx--0-0-xxxxxx--0-0-0-----------8-0-0--0----|


1:19-1:34
|-------------------------------------------------|
|-------------------------------------------------|
|-66666666666666--7777-66666666-------------------|
|-xxxxxxxxxxxxxx--xxxx-xxxxxxxx--999999999999999--|
|-44444444444444--5555-44444444--999999999999999--|
|--------------------------------999999999999999--|

|----------------------|
|----------------------|
|----------------------|
|-44444444--0000-2222--|
|-44444444--0000-2222--|
|-44444444--0000-2222--|


1:35-1:50
|--------------------------------------------------------------|
|--------------------------------------------------------------|
|-----------------------------------------------------77---777-|
|-----------------------------------------------------xx---xxx-|
|---------------------------------------------------x-55---555-|
|-4--1-1-xx-1-1-1-1-1-1-xx-1-1-1-00-4—-1-1-xx-1-1-1-x----0-----|
                             ..                      .
|--------------------------------------------------------------|
|--------------------------------------------------------------|
|-----------------------------------------------------77---777-|
|-----------------------------------------------------xx---xxx-|
|---------------------------------------------------x-55---555-|
|-4--1-1-xx-1-1-1-1-1-1-xx-1-1-1-00-4—-1-1-xx-1-1-1-x----0-----|
                                 ..                      .

1:51-2:06
|---------------------------------------------------|
|---------------------------------------------------|
|--7\--7-7-7\---------------------------7\--7-7-7\--|
|--x\--x-x-x\---------------------------x\--x-x-x\--|
|--5\--5-5-5\---------------------------5\--5-5-5\--|
|---------------------------------------------------|


2:07-2:21
|----------------------------------|
|----------------------------------|
|----------------------------------|
|-4-x-1--xx--4-1-4—-1-1--xx-xx-xx--|
|-4-x-1--xx--4-1-4—-1-1--xx-xx-xx--|
|-4-x-1--xx--4-1-4—-1-1--xx-xx-xx--|

--------------------------------------|
--------------------------------------|
--------------------------------------|
-xx-4-x-1-xx--4-1-4--11---------------|
-xx-4-x-1-xx--4-1-4--11---------------|
-xx-4-x-1-xx--4-1-4--11-1-1-1-1/12b---|

|----------------------------------|
|----------------------------------|
|----------------------------------|
|-4-x-1--xx--4-1-4—-1-1--xx-xx-xx--|
|-4-x-1--xx--4-1-4—-1-1--xx-xx-xx--|
|-4-x-1--xx--4-1-4—-1-1--xx-xx-xx--|

--------------------------|
--------------------------|
--------------------------|
-xx-4-x-1-xx--4-1-4--1—-0-|
-xx-4-x-1-xx--4-1-4--1—-0-|
-xx-4-x-1-xx--4-1-4--1—-0-|


2:22-2:46
|-------xxxx------xxxxxx--------xxxx---------|
|-------xxxx------xxxxxx--------xxxx---------|
|-------xxxx------xxxxxx--------xxxx---------|
|-------xxxx------xxxxxx--------xxxx---------|
|-0-0-0-xxxx--0-0-xxxxxx--0-0-0-xxxx--0-0-00-|
|-0-0-0-xxxx--0-0-xxxxxx--0-0-0-xxxx--0-0-00-|

|-------xxxx------xxxxxx--------xxxx---------|
|-------xxxx------xxxxxx--------xxxx---------|
|-------xxxx------xxxxxx--------xxxx---------|
|-------xxxx------xxxxxx--------xxxx---------|
|-0-0-0-xxxx--0-0-xxxxxx--0-0-0-xxxx--0-0-00-|
|-0-0-0-xxxx--0-0-xxxxxx--0-0-0-xxxx--0-0-00-|

|--------------------------------------------|
|--------------------------------------------|
|--------------------------------------------|
|--------------------------------------------|
|-0-0-0-------0-0---------0-0-0-------0-0-00-|
|-0-0-0-------0-0---------0-0-0-------0-0-00-|

|--------------------------------------------|
|--------------------------------------------|
|--------------------------------------------|
|--------------------------------------------|
|-0-0-0-------0-0---------0-0-0-------0-0-00-|
|-0-0-0-------0-0---------0-0-0-------0-0-00-|


2:47-3:02
|-------------------------------------------------|
|-------------------------------------------------|
|-66666666666666--7777-66666666-------------------|
|-xxxxxxxxxxxxxx--xxxx-xxxxxxxx--999999999999999--|
|-44444444444444--5555-44444444--999999999999999--|
|--------------------------------999999999999999--|

|----------------------|
|----------------------|
|----------------------|
|-44444444--0000-2222--|
|-44444444--0000-2222--|
|-44444444--0000-2222--|


3:03-3:19
guitar 1
|----------------------------------------------------------------|
|----------------------------------------------------------------|
|----------------------------------------------------------------|
|-4--4-4--4--4-4--4--4-4--4--4-4--0--0-0--0--0-0--0--0-0--0--0-0-|
|-4--4-4--4--4-4--4--4-4--4--4-4--0--0-0--0--0-0--0--0-0--0--0-0-|
|-4--4-4--4--4-4--4--4-4--4--4-4--0--0-0--0--0-0--0--0-0--0--0-0-|

|------------------------------------------------------------|
|------------------------------------------------------------|
|------------------------------------------------------------|
|-9--9-9--9--9-9--9--9-9--9--9-9--xx0-0-0-0----00----22~~~~xx|
|-9--9-9--9--9-9--9--9-9--9--9-9--xx0-0-0-0----00----22~~~~xx|
|-9--9-9--9--9-9--9--9-9--9--9-9--xx0-0-0-0----00----22~~~~xx|


guitar 2
    t  t  t  t  t  t  t  t   t  t  t  t  t  t  t  t
|--14-14-14-14-14-14-14-14--16-16-16-16-16-16-16-16--- |
|----------------------------------------------------- |
|----------------------------------------------------- |
|----------------------------------------------------- | 
|----------------------------------------------------- |  
|----------------------------------------------------- /   
                                                         \
                                                          x3
   t  t  t  t  t  t  t  t   t  t  t  t  t  t  t  t       /
--17-17-17-17-17-17-17-17--19-19-19-19-19-19-19-19---- /
------------------------------------------------------ |
------------------------------------------------------ |
------------------------------------------------------ |
------------------------------------------------------ |
------------------------------------------------------ |

   t  t  t  t  t  t  t  t  t  t  t  t  t  t  t  t
|-17-17-17-17-17-17-17-17-17-17-17-17-17-17-17-17---|
|---------------------------------------------------|
|---------------------------------------------------|
|---------------------------------------------------|
|---------------------------------------------------|
|---------------------------------------------------|

 t  t  t  t  t  t  t  t  t  t  t  t  t  t  t  t
-16-16-16-16-16-16-16-16-16-16-16-16-16-16-16-16---|
---------------------------------------------------|
---------------------------------------------------|
---------------------------------------------------|
---------------------------------------------------|
---------------------------------------------------|

3:19-3:35

guitar 1
|----------------------------------------------------------------|
|----------------------------------------------------------------|
|----------------------------------------------------------------|
|-4--4-4--4--4-4--4--4-4--4--4-4--0--0-0--0--0-0--0--0-0--0--0-0-|
|-4--4-4--4--4-4--4--4-4--4--4-4--0--0-0--0--0-0--0--0-0--0--0-0-|
|-4--4-4--4--4-4--4--4-4--4--4-4--0--0-0--0--0-0--0--0-0--0--0-0-|

|----------------------------------------------------------|
|----------------------------------------------------------|
|----------------------------------------------------------|
|-9--9-9--9--9-9--9--9-9--9--9-9--xx0-0-0-0----2~~~~~~~~~~~|
|-9--9-9--9--9-9--9--9-9--9--9-9--xx0-0-0-0----2~~~~~~~~~~~|
|-9--9-9--9--9-9--9--9-9--9--9-9--xx0-0-0-0----2~~~~~~~~~~~|

guitar 2
    t  t  t  t  t  t  t  t   t  t  t  t  t  t  t  t
|--14-14-14-14-14-14-14-14--16-16-16-16-16-16-16-16--- |
|----------------------------------------------------- |
|----------------------------------------------------- |
|----------------------------------------------------- | 
|----------------------------------------------------- |  
|----------------------------------------------------- /   
                                                         \
                                                          x3
   t  t  t  t  t  t  t  t   t  t  t  t  t  t  t  t       /
--17-17-17-17-17-17-17-17--19-19-19-19-19-19-19-19---- /
------------------------------------------------------ |
------------------------------------------------------ |
------------------------------------------------------ |
------------------------------------------------------ |
------------------------------------------------------ |

t  t  t  t  t  t  t  t  t  t  t  t  t  t  t  t
|-17-17-17-17-17-17-17-17-17-17-17-17-17-17-17-17---|
|---------------------------------------------------|
|---------------------------------------------------|
|---------------------------------------------------|
|---------------------------------------------------|
|---------------------------------------------------|

 t  t  t  t  t  t  t  t  t  t  t  t  t  t  t  t
-16-16-16-16-16-16-16-16-16-16-16-16-16-16-16-16---|
---------------------------------------------------|
---------------------------------------------------|
---------------------------------------------------|
---------------------------------------------------|
---------------------------------------------------|


3:36-4:10
|--------------------------------------------------------|
|--------------------------------------------------------|
|--------------------------------------------------------|
|--------------------------------------------------------|
|-0-0-0----0---0-----0-0-0----0---0------0-0-0----0---0--|
|-0-0-0----0---0-----0-0-0----0---0------0-0-0----0---0--|

----------------------------------------------------------|
----------------------------------------------------------|
----------------------------------------------------------|
------------------------------------------------------0~--|
-0-0-0----0---0-----0-0-0----0---0------0-0-0-0---0---0~--|
-0-0-0----0---0-----0-0-0----0---0------0-0-0-0---0---0~--|
Добавлено: 23.09.2013
Другие материалы по этой песне:
  • Аккорды и текст

Страница создана 23.07.2013
http://primanota.ru/dead-and-divine/creature-chords.htm
Привет, Гость.
Предлагаем пройти революционный курс по гитаре.
Подарок от PrimaNota.Ru, забирай!