PrimaNota.ru - самый крупный в мире бесплатный архив песенных текстов, аккордов, табулатур и нот


Dead And Divine - Chemical Valley - таба, видео

Регистрация Запомнить меня
Войти через:  Facebook Google Twitter Vk Yandex Mail.ru

Dead And Divine - Chemical Valley - таба, видео

Печатать
Просмотров: 83
tuning: Drop C
have a nice day

0:00-0:04
|-------------------------------------------------------|
|-------------------------------------------------------|
|--4-4-4-4-4-4--7-7-7-7-7-7--4-4-4-4-4-4--7-7-7--xx-----|
|------------------------------------------------xx-----|
|--2-2-2-2-2-2--5-5-5-5-5-5--2-2-2-2-2-2--5-5-5--xx-----|
|-------------------------------------------------------|

0:04-0:13
|-------------------------------------------------------|
|-------------------------------------------------------|
|--4-4-4-4-4-4--7-7-7-7-7-7--4-4-4-4-4-4--7-7-7--xx-----|
|------------------------------------------------xx-----|
|--2-2-2-2-2-2--5-5-5-5-5-5--2-2-2-2-2-2--5-5-5--xx-----|
|-------------------------------------------------------\
                                                         x2
|-------------------------------------------------------/
|-------------------------------------------------------|
|-------------------------------------------------------|
|--2-2-2-2-2-2--5-5-5-5-5-5--2-2-2-2-2-2--5-5-5--xx-----|
|--2-2-2-2-2-2--5-5-5-5-5-5--2-2-2-2-2-2--5-5-5--xx-----|
|--2-2-2-2-2-2--5-5-5-5-5-5--2-2-2-2-2-2--5-5-5--xx-----|



0:14-0:32
|----------------------------------------------|
|----------------------------------------------|
|----------------------------------------------|
|----------------------------------------------|
|-----------2-0---------------2-0--------------|
|-2-2--2-2------2b—-2-2--2-2------10-10-10-10--|

|----------------------------------------------|
|----------------------------------------------|
|----------------------------------------------|
|----------------------------------------------|
|-----------2-0---------------2-0--------------|
|-2-2--2-2------2b—-2-2--2-2------10-10-10-10--|

|----------------------------------------------|
|----------------------------------------------|
|----------------------------------------------|
|----------------------------------------------|
|-----------2-0---------------2-0--------------|
|-2-2--2-2------2b—-2-2--2-2------10-10-10-10--|

|----------------------------------------------|
|----------------------------------------------|
|----------------------------------------------|
|----------------------------------------------|
|-----------2-0---------------2-0--------------|
|-2-2--2-2------2b—-2-2--2-2------10-10-10-10--|


0:33-0:33
|-----------|
|-----------|
|-----------|
|-0--2--3---|
|-0--2--3---|
|-0--2--3---|


0:34-0:53
|---------------------------------------------------|
|---------------------------------------------------|
|---------------------------------------------------|
|-0-2-3-0---0-2-3-0-2-3-0--0-2-3-0---0-2-3-0-2-3-0--|
|-0-2-3-0---0-2-3-0-2-3-0--0-2-3-0---0-2-3-0-2-3-0--|
|-0-2-3-0---0-2-3-0-2-3-0--0-2-3-0---0-2-3-0-2-3-0--|

|---------------------------------------------------|
|---------------------------------------------------|
|---------------------------------------------------|
|-0-2-3-0---0-2-3-0-2-3-0--0-2-3-0---0-2-3-0-2-3-0--|
|-0-2-3-0---0-2-3-0-2-3-0--0-2-3-0---0-2-3-0-2-3-0--|
|-0-2-3-0---0-2-3-0-2-3-0--0-2-3-0---0-2-3-0-2-3-0--|


0:54-1:12
its easy...just listen 
|---------------------------------------|
|---------------------------------------|
|--12----------11---------4----------7--|
|--10----------9----------2----------5--|
|--10----------9----------2----------5--|
|--10----------9----------2----------5--|


1:13-1:26
|------------------------------------|
|------------------------------------|
|------------------------------------|
|-2--0--2-2p0-xx-xx-xx--2--0--2-2p0--|
|-2--0--2-2p0-xx-xx-xx--2--0--2-2p0--|
|-2--0—-2-2p0-xx-xx-xx--2--0--2-2p0--|

|------------------------------------|
|------------------------------------|
|------------------------------------|
|-2--0--2-2p0-xx-xx-xx--2--0--2-2p0--|
|-2--0--2-2p0-xx-xx-xx--2--0--2-2p0--|
|-2--0—-2-2p0-xx-xx-xx--2--0--2-2p0--|

|------------------------------------|
|------------------------------------|
|------------------------------------|
|-2--0--2-2p0-xx-xx-xx--2--0--2-2p0--|
|-2--0--2-2p0-xx-xx-xx--2--0--2-2p0--|
|-2--0—-2-2p0-xx-xx-xx--2--0--2-2p0--|

|---------------------------------------|
|---------------------------------------|
|---------------------------------------|
|-2--0--2-2p0-xx-xx-xx--2--0--2-2p0--\--|
|-2--0--2-2p0-xx-xx-xx--2--0--2-2p0--\--|
|-2--0—-2-2p0-xx-xx-xx--2--0--2-2p0--\--|


1:27-1:45
|----------------------------------------------|
|----------------------------------------------|
|----------------------------------------------|
|----------------------------------------------|
|-----------2-0---------------2-0--------------|
|-2-2--2-2------2b—-2-2--2-2------10-10-10-10--|

|----------------------------------------------|
|----------------------------------------------|
|----------------------------------------------|
|----------------------------------------------|
|-----------2-0---------------2-0--------------|
|-2-2--2-2------2b—-2-2--2-2------10-10-10-10--|

|----------------------------------------------|
|----------------------------------------------|
|----------------------------------------------|
|----------------------------------------------|
|-----------2-0---------------2-0--------------|
|-2-2--2-2------2b—-2-2--2-2------10-10-10-10--|

|----------------------------------------------|
|----------------------------------------------|
|----------------------------------------------|
|----------------------------------------------|
|-----------2-0---------------2-0--------------|
|-2-2--2-2------2b—-2-2--2-2------10-10-10-10--|


1:46-2:07
|---------------------------------------|
|--------------------4---4------4---4---|
|--------------------7---7------7---7---|
|-2-0--2-6--0-5-------------------------|
|-2-0--2-6--0-5--000---0----000---0-----|
|-2-0--2-6--0-5--000---0----000---0-----|

|------------------------------------|
|------------------------------------|
|------------------------------------|
|-2-0--2-6--0-5----------------------|
|-2-0--2-6--0-5----------------------|
|-2-0--2-6--0-5--0-2--0-2--0-1--0-1--|

|---------------------------------------|
|--------------------4---4------4---4---|
|--------------------7---7------7---7---|
|-2-0--2-6--0-5-------------------------|
|-2-0--2-6--0-5--000---0----000---0-----|
|-2-0--2-6--0-5--000---0----000---0-----|

|-------------------------------------------------------|
|-------------------------------------------------------|
|-------------------------------------------------------|
|-2-0--2-6--0-5-----------------------------------------|
|-2-0--2-6--0-5-----------------------------------------|
|-2-0--2-6--0-5--0-2--0-2--0-1--0-1—-0-1--0-1—-0-1--0-1-|


2:08-2:26
|---------------------------------------|
|---------------------------------------|
|--12----------11---------4----------7--|
|--10----------9----------2----------5--|
|--10----------9----------2----------5--|
|--10----------9----------2----------5--|


2:27-2:43
|------------------------------------|
|------------------------------------|
|------------------------------------|
|-2--0--2-2p0-xx-xx-xx--2--0--2-2p0--|
|-2--0--2-2p0-xx-xx-xx--2--0--2-2p0--|
|-2--0—-2-2p0-xx-xx-xx--2--0--2-2p0--|

|------------------------------------|
|------------------------------------|
|------------------------------------|
|-2--0--2-2p0-xx-xx-xx--2--0--2-2p0--|
|-2--0--2-2p0-xx-xx-xx--2--0--2-2p0--|
|-2--0—-2-2p0-xx-xx-xx--2--0--2-2p0--|

|------------------------------------|
|------------------------------------|
|------------------------------------|
|-2--0--2-2p0-xx-xx-xx--2--0--2-2p0--|
|-2--0--2-2p0-xx-xx-xx--2--0--2-2p0--|
|-2--0—-2-2p0-xx-xx-xx--2--0--2-2p0--|

|----------------------------------|
|----------------------------------|
|----------------------------------|
|-2--0--2-2p0-xx-xx-xx--2--0--2-2--|
|-2--0--2-2p0-xx-xx-xx--2--0--2-2--|
|-2--0—-2-2p0-xx-xx-xx--2--0--2-2--|
Добавлено: 27.09.2013
Другие материалы по этой песне:
  • Аккорды и текст

Страница создана 08.08.2013
http://primanota.ru/dead-and-divine/chemical-valley-chords.htm
Привет, Гость.
Предлагаем пройти революционный курс по гитаре.
Подарок от PrimaNota.Ru, забирай!