PrimaNota.ru - самый крупный в мире бесплатный архив песенных текстов, аккордов, табулатур и нот


De Staat - Down Town - таба, видео

Регистрация Запомнить меня
Войти через:  Facebook Google Twitter Vk Yandex Mail.ru

De Staat - Down Town - таба, видео

Печатать
Просмотров: 175
Уроки эстрадного вокала в Санкт-Петербурге
-------------------------------------------------------------------------------
                             Down Town - De Staat
-------------------------------------------------------------------------------
Tabbed by: annediao
E-mail: annediao10@gmail.com

My first tab

Intro
0:00
e|------------------------------------------------------------------------------|
B|------------------------------------------------------------------------------|
G|------------------------------------------------------------------------------|
D|------------7\----------------------------------------------------------------|
A|------------7\----------------------------------------------------------------|
E|------------5\----------------------------------------------------------------|


0:38
e|---------------------------------------------------------------------------|
B|---------------------------------------------------------------------------|
G|---------------------------------------------------------------------------|
A|--11\10-10-10-10-10-10---14-14\13/14\13-13-13-13-13------------------------|
D|--11\10-10-10-10-10-10---14-14\13/14\13-13-13-13-13------------------------|
E|--9-\-8--8--8--8--8--8---12-12\11/12\11-11-11-11-11------------------------|

0:45
e|---------------------------------------------------------------------------|
B|---------------------------------------------------------------------------|
G|-----------------5-5-------------------------------------------------------|
D|--7-7-7-7--5-5---5-5--2-2-2-2-2-2------------------------------------------|
A|--7-7-7-7--5-5---3-3--2-2-2-2-2-2------------------------------------------|
E|--5-5-5-5--3-3--------0-0-0-0-0-0------------------------------------------|

1:10
e|---------------------------------------------------------------------------|
B|---------------------------------------------------------------------------|
G|---------------------------------------------------------------------------|
D|-------2-------------------------------------------------------------------|
A|-------2-------------------------------------------------------------------|
E|-------0-------------------------------------------------------------------|

1:13
e|---------------------------------------------------------------------------|
B|--7-7-7-7-7-5-------------------------------5------------------------------|
G|--------------7-5---------------7-7-7-7-7-5---5----------------------------|
D|------------------7-----------------------------7--------------------------|
A|----------------------- x3 ------------------------------------------------|
E|---------------------------------------------------------------------------|


************************************

| /   slide up
| \   slide down
| h   hammer-on
| p   pull-off
| ~   vibrato
| +   harmonic
| x   Mute note
| b   Bend
| pb  Pre-bend
| br  Bend release
| pbr Pre-bend release
| brb Bend release bend

************************************
Добавлено: 09.03.2016
Вам также может быть интересно:
Другие материалы по этой песне:
  • Аккорды и текст

Страница создана 09.03.2016
http://primanota.ru/de-staat/down-town-chords.htm
Привет, Гость.
Предлагаем пройти революционный курс по гитаре.
Подарок от PrimaNota.Ru, забирай!