PrimaNota.ru - самый крупный в мире бесплатный архив песенных текстов, аккордов, табулатур и нот


De Nattergale - Uhadada - таба, видео

Регистрация Запомнить меня
Войти через:  Facebook Google Twitter Vk Yandex Mail.ru

De Nattergale - Uhadada - таба, видео

Печатать
Просмотров: 93
De nattergale - uhadada

tab:a.k Senftleber :}

e|------------12-12-12-12-12--------------------| 
b|----12-14---12-12-12-12-12--------------------| 
g|----12-14------------------14-12-14-----------| 
d|-14-------------------------------------------| 
a|----------------------------------------------| 
e|----------------------------------------------| 

e|------------------------12-12-12-12-12-12-12-12-12--| 
b|-12-12-12-12-12------10-12-12-12-12-12-12-12-12-12--| 
g|-12-12-12-12-12-9-12----9--9--9--9--9--9--9--9--9---| 
d|----------------------------------------------------| 
a|----------------------------------------------------| 
e|----------------------------------------------------| 

e|-15-14-12-------------------------------------| 
b|----------15-14-12----------------------------| 
g|-------------------14-12-13-------------------| 
d|----------------------------------------------| 
a|----------------------------------------------| 
e|----------------------------------------------| 

e|----------------------------------14-12-------| 
b|-------------------------14-10-12-------------| 
g|----------------14-11-13----------------------| 
d|-------14-11-12-------------------------------| 
a|-11-12----------------------------------------| 
e|----------------------------------------------| 

E  A  E  E  B  A

im sure about the orgel part is not rigtig

e|-----------------------------------------------| 
b|-------17--------------------------------------| 
g|-------------12-12-----------------------------| 
d|-5-5-2-------------14--------------------------| 
a|-5-5-2-----------------------------------------| 
e|-3-3-0-----------------------------------------| 

E A E B A

e|-----------------------------------------------| 
b|-----------------------------------------------| 
g|--------12-9-9-7-9-9-7--------9----------------| 
d|-5-5-2------------------9-7-5------------------| 
a|-5-5-2-----------------------------------------| 
e|-3-3-0-----------------------------------------| 

E A E B A

e|-----------------------------------------------| 
b|-----------------------------------------------| 
g|-----------------------------------------------| 
d|-5-5-2--14\13/14\13----------------------------| 
a|-5-5-2-----------------------------------------| 
e|-3-3-0-----------------------------------------| 

E A E B A

e|----------------------------------------------------------------| 
b|----------------------------------------------------------------| 
g|----------------------------------------------------------------| 
d|-5-5-2--14\13/14\13---14\13/14\13---14\13/14\13---14\13/14\13---| 
a|-5-5-2----------------------------------------------------------| 
e|-3-3-0----------------------------------------------------------| 

E A E B A

e|---------------------------------------------------| 
b|-------17---17-17--------------16h17---------------| 
g|-------------------12h13-12h13--------12h13--12h13-| 
d|-5-5-2---------------------------------------------| 
a|-5-5-2---------------------------------------------| 
e|-3-3-0---------------------------------------------| 

E A E B A

e|---------12--12-----12--12-12---------------------| 
b|---------12--12-----12--12-12---------------------| 
g|---------9---9------9---9--9----------------------| 
d|-5-5-2--------------------------------------------| 
a|-5-5-2--------------------------------------------| 
e|-3-3-0--------------------------------------------| 

E A E B A

e|--------------------------------------------------| 
b|-------12--11--10--9------------------------------| 
g|--------------------------------------------------| 
d|-5-5-2--------------------------------------------| 
a|-5-5-2--------------------------------------------| 
e|-3-3-0--------------------------------------------|
Добавлено: 19.06.2012
Другие материалы по этой песне:
  • Аккорды и текст

Страница создана 19.06.2012
http://primanota.ru/de-nattergale/uhadada-chords.htm
Привет, Гость.
Предлагаем пройти революционный курс по гитаре.
Подарок от PrimaNota.Ru, забирай!