PrimaNota.ru - самый крупный в мире бесплатный архив песенных текстов, аккордов, табулатур и нот


De Mens - Denk Je Nog Aan Mij - таба, видео

Регистрация Запомнить меня
Войти через:  Facebook Google Twitter Vk Yandex Mail.ru

De Mens - Denk Je Nog Aan Mij - таба, видео

Печатать
Просмотров: 85
Artist : De Mens
Song : Denk Je Nog Aan Mij
Tabbed by Wim Hermans (wimhermans2@hotmail.com)
This is all my own work
Mail any suggestions or corrections to wimhermans2@hotmail.com


Intro :

E |----------------------|
B |9--10--9--------------|
G |----------9--9--6--9--|    x2
D |----------------------|
A |----------------------|
E |----------------------|


Verse 1
  ("je vader zegt dat hij niet weet ...")

E |----------|----------|-------------|
B |----------|----------|-------------|
G |---9--11--|---9--11--|---9--11--9--|
D |7--9--11--|7--9--11--|7--9--11--9--|
A |7--7--9---|7--7--9---|7--7--9---7--|
E |5---------|5---------|5------------|


Chorus :
  ("denk je nog aan mij ...")
E |0|
B |2|
G |2|
D |2|
A |0|
E |-|


Verse 2 :
  ("in het midden van de straat ...")

E |----------|-------------|-------------|
B |----------|-------------|-------------|
G |---9--11--|---9--11--7--|---9--11--9--|
D |7--9--11--|7--9--11--7--|7--9--11--9--|
A |7--7--9---|7--7--9---5--|7--7--9---7--|
E |5---------|5------------|5------------|


Chorus


Verse 3 :
  ("Ik wil geen goede raad ...")

E |--------------------
B |--------------------
G |11--9--14--7-------9
D |11--9--14--7----7--9
A |9---7--12--5----7--7
E |----------------5---


Intro


Verse 4
("nee ik vraag niet hoe het gaat ...")

E |----------|----------|-------------|
B |----------|----------|-------------|
G |---9--11--|---9--11--|---9--11--9--|
D |7--9--11--|7--9--11--|7--9--11--9--|
A |7--7--9---|7--7--9---|7--7--9---7--|
E |5---------|5---------|5------------|


Chorus


Outro

E |---------------|----------------------
B |9--------------|9--10--9--------------
G |---9--9--6--9--|----------9--9--6--9--
D |---------------|-------------------7--
A |---------------|-------------------7--
E |---------------|----------------------


                          ------------------------------------



Some lead guitar riffs in the song:

E |---------------------
B |---------5-----------
G |---------------------
D |------------7--7--(7)   (after first part of verse 1)
A |7--9--7-----------(7)
E |------------------(5)

E |------------------
B |10----------------
G |---7--------------      (after second part of verse 1)
D |------7--------(7)
A |---------7--9--(7)
E |---------------(5)

E |--------
B |10--9---
G |-------9
D |--------                (after first chorus)
A |--------
E |--------


E |------
B |------
G |------                  (at the end of verses 2 and 4)
D |9--11v
A |------
E |------


E |------------------
B |------5-----------
G |------------------      (after second part of verse 4)
D |7--9-----7--7--(7)
A |---------------(7)
E |---------------(5)

E |-------
B |-------
G |---7--6
D |-------		    (last chorus and outro)
A |7------
E |-------
     
Добавлено: 28.08.2013
Другие материалы по этой песне:
  • Аккорды и текст

Страница создана 28.08.2013
http://primanota.ru/de-mens/denk-je-nog-aan-mij-chords.htm
Привет, Гость.
Предлагаем пройти революционный курс по гитаре.
Подарок от PrimaNota.Ru, забирай!