PrimaNota.ru - самый крупный в мире бесплатный архив песенных текстов, аккордов, табулатур и нот


De Liriums Order - Autistic Savant - таба, видео

Регистрация Запомнить меня
Войти через:  Facebook Google Twitter Vk Yandex Mail.ru

De Liriums Order - Autistic Savant - таба, видео

Печатать
Просмотров: 81
http://www.deliriumsorder.net

Title: Autistic Savant
Artist: De Lirium's Order
Copyright: DLO Productions
Tempo = 130
Guitar Juha

Legend
L - tied note
x - dead note
h - hammer on/pull off
b - bend
s - slide
~ - vibrato
g - ghost note
> - accentuated note
t - trill
M - palm mute
. - staccato
P - popping (bass)
S - slapping (bass)
+ - tapping
W - wide vibrato
< - fade in
w - whammy bar
= - tremolo picking
v - brush up
^ - brush down
V - pick stroke up
n - pick stroke down


D |----------------------------------------------------|
A |----------------------------------------------------|
F |----------------------------------------------------|
C |--19M15M14M0M-19M15M14M0M-19M15M14M0M-19M15M14M0M---|
G |----------------------------------------------------|
D |----------------------------------------------------|


----------------------------------------------------|
----------------------------------------------------|
----------------------------------------------------|
--15M14M11M0M-15M14M11M0M-15M14M11M0M-15M14M11M0M---|
----------------------------------------------------|
----------------------------------------------------|


----------------------------------------------------|----------------|
----------------------------------------------------|----------------|
----------------------------------------------------|----------------|
--8M-4M-0M----0M-4M-8M-4M-0M----0M-4M-8-------------|----------------|
-----------6M----------------6M-------------6M-8M---|--9-----9--8----|
----------------------------------------------------|--------7--6----|


----------------------------------------------------|
----------------------------------------------------|
----------------------------------------------------|
--19M15M14M0M-19M15M14M0M-19M15M14M0M-19M15M14M0M---|
----------------------------------------------------|
----------------------------------------------------|


----------------------------------------------------|
----------------------------------------------------|
----------------------------------------------------|
--15M14M11M0M-15M14M11M0M-15M14M11M0M-15M14M11M0M---|
----------------------------------------------------|
----------------------------------------------------|


----------------------------------------------------|----------------|
----------------------------------------------------|----------------|
----------------------------------------------------|----------------|
--8h-4h-0-----0M-4M-8h-4h-0-----0M-4M-8-------------|----------------|
-----------6M----------------6M-------------6M-8M---|--9-----9--8----|
----------------------------------------------------|--------7--6----|


----------------------------------------------------|
----------------------------------------------------|
----------------------------------------------------|
--19M15M14M0M-19M15M14M0M-19M15M14M0M-19M15M14M0M---|
----------------------------------------------------|
----------------------------------------------------|


----------------------------------------------------|
----------------------------------------------------|
----------------------------------------------------|
--15M14M11M0M-15M14M11M0M-15M14M11M0M-15M14M11M0M---|
----------------------------------------------------|
----------------------------------------------------|


----------------------------------------------------|----------------|
----------------------------------------------------|----------------|
----------------------------------------------------|----------------|
--7h-3h-0-----0M-3M-8h-3h-0-----0M-3M-7-------------|----------------|
-----------4M----------------4M-------------5M-7M---|--8-----8--7----|
----------------------------------------------------|--------6--5----|


----------------------------------------------------|
----------------------------------------------------|
----------------------------------------------------|
--19M15M14M0M-19M15M14M0M-19M15M14M0M-19M15M14M0M---|
----------------------------------------------------|
----------------------------------------------------|


----------------------------------------------------|
----------------------------------------------------|
----------------------------------------------------|
--15M14M11M0M-15M14M11M0M-15M14M11M0M-15M14M11M0M---|
----------------------------------------------------|
----------------------------------------------------|


----------------------------------------------------|----------------|
----------------------------------------------------|----------------|
----------------------------------------------------|----------------|
--7h-3h-0-----0M-3M-8h-3h-0-----0M-3M-6-------------|-----------6----|
-----------4M----------------4M---------------------|--5--------4----|
--------------------------------------------6M-5M---|--3-------------|


-------------------------------------------|
-------------------------------------------|
-------------------------------------------|
-------------------------------------------|
--5M-5M----5M-5M-5M----5M----5M----5M------|
-------------------------------------------|


-------------------------------------------|
-------------------------------------------|
-------------------------------------------|
-----------------------------------8-------|
--5M-5M----5M-5M-5M----5M----5M----5-------|
-------------------------------------------|


-------------------------------------------------|
-------------------------------------------------|
-------------------------------------------------|
-------------------------------------------------|
--5M-5M----5M-5M-5M----5M----5M----5M----5M------|
-------------------------------------------------|


----------------------------------------------------|
----------------------------------------------------|
----------------------------------------------------|
----------------------------------------------------|
--5M-5M-5M-5M-5-----5-----5-----5-----5-----5-------|
----------------------------------------------------|


----------------------------|
-----------------9----------|
-----7-----7-----7----------|
----------------------------|
-----5-----5-----5----------|
----------------------------|


----------------------------------------------------|
----------------------------------------------------|
--7--------8--------7-----11-------10-------8-------|
----------------------------------------------------|
-----5M-5M----5M-5M----5M----5M-5M----5M-5M----5M---|
----------------------------------------------------|


----------------------------------------------------|
----------------------------------------------------|
--7--------8--------7-----2--------3--------2-------|
----------------------------------------------------|
-----5M-5M----5M-5M----5M----5M-5M----5M-5M----5M---|
----------------------------------------------------|


----------------------------------------------------|
----------------------------------------------------|
--9--------8--------7-----6--------7--------8-------|
----------------------------------------------------|
-----4M-4M----4M-4M----4M----4M-4M----4M-4M----4M---|
----------------------------------------------------|


----------------------------------------------------|
----------------------------------------------------|
--9--------8--------7-----6--------7--------8-------|
----------------------------------------------------|
-----4M-4M----4M-4M----4M----4M-4M----4M-4M----4M---|
----------------------------------------------------|


----------------------------------------------------|
----------------------------------------------------|
--7--------8--------7-----11-------10-------8-------|
----------------------------------------------------|
-----5M-5M----5M-5M----5M----5M-5M----5M-5M----5M---|
----------------------------------------------------|


----------------------------------------------------|
----------------------------------------------------|
--7--------8--------7-----2--------3--------2-------|
----------------------------------------------------|
-----5M-5M----5M-5M----5M----5M-5M----5M-5M----5M---|
----------------------------------------------------|


----------------------------------------------------|
----------------------------------------------------|
--9--------8--------7-----6--------7--------8-------|
----------------------------------------------------|
-----4M-4M----4M-4M----4M----4M-4M----4M-4M----4M---|
----------------------------------------------------|


----------------------------------------------------|
----------------------------------------------------|
--9--------8--------7-----6--------7--------8-------|
----------------------------------------------------|
-----4M-4M----4M-4M----4M----4M-4M----4M-4M----4M---|
----------------------------------------------------|


----------------------------------------------------|
----------------------------------------------------|
----------------------------------------------------|
--8--------9--------8-----12-------11-------9-------|
----------------------------------------------------|
-----6M-6M----6M-6M----6M----6M-6M----6M-6M----6M---|


----------------------------------------------------|
----------------------------------------------------|
----------------------------------------------------|
--8--------9--------8-----3--------4--------3-------|
----------------------------------------------------|
-----6M-6M----6M-6M----6M----6M-6M----6M-6M----6M---|


----------------------------------------------------|
----------------------------------------------------|
----------------------------------------------------|
--5--------5h-4-------------------------------------|
-----------------------6h-5-----1M-3M-4M-3M-1M-3M---|
-----3M-3M-------3M-3M-------3M---------------------|


----------------------------------------------------|
----------------------------------------------------|
----------------------------------------------------|
----------------------------------------------------|
--4--------2--------4-----5--------7--------8-------|
--2--------0--------2-----3--------5--------6-------|


----------------------------------------------------|
----------------------------------------------------|
--7--------8--------7-----11-------10-------8-------|
----------------------------------------------------|
-----5M-5M----5M-5M----5M----5M-5M----5M-5M----5M---|
----------------------------------------------------|


----------------------------------------------------|
----------------------------------------------------|
--7--7--7-------------------------------------------|
-----------7--7--7--------8--------8--------8-------|
--------------------6M-6M----6M-6M----6M-6M----6M---|
----------------------------------------------------|


----------------------------------------------------|
----------------------------------------------------|
--6--------7--------6-----10-------9--------7-------|
----------------------------------------------------|
-----4M-4M----4M-4M----4M----4M-4M----4M-4M----4M---|
----------------------------------------------------|


----------------------------------------------------|
----------------------------------------------------|
--6--------7--------6-------------------------------|
--------------------------6--------7--------6-------|
-----4M-4M----4M-4M----4M----4M-4M----4M-4M----4M---|
----------------------------------------------------|


----------------------------------------------------|
----------------------------------------------------|
----------------------------------------------------|
--8--------9--------8-----12-------11-------9-------|
----------------------------------------------------|
-----6M-6M----6M-6M----6M----6M-6M----6M-6M----6M---|


----------------------------------------------------|
----------------------------------------------------|
----------------------------------------------------|
--8--------9--------8-----3--------4--------3-------|
----------------------------------------------------|
-----6M-6M----6M-6M----6M----6M-6M----6M-6M----6M---|


----------------------------------------------------|
----------------------------------------------------|
----------------------------------------------------|
--5--------5h-4-------------------------------------|
-----------------------6h-5-----1M-3M-4M-3M-1M-3M---|
-----3M-3M-------3M-3M-------3M---------------------|


----------------------------------------------------|
----------------------------------------------------|
----------------------------------------------------|
----------------------------------------------------|
--4--------2--------4-----5--------7--------8-------|
--2--------0--------2-----3--------5--------6-------|


----------------------------------------------------|
----------------------------------------------------|
----------------------------------------------------|
--3-----------------3-------------------------------|
-----5M-5M-5M-5M-5M----5M-5M-5M-5M-5M-4M-5M-5M-5M---|
----------------------------------------------------|


----------------------------------------------------|
----------------------------------------------------|
--------------------------------------8-------------|
----------------------------------------------------|
--3M-5M-5M-5M-2M-5M-5M-5M-1M-5M-5M-5M----6M-5M-6M---|
----------------------------------------------------|


----------------------------------------------------|
----------------------------------------------------|
--7-----------7-----7-----------7-----7-------------|
----------------------------------------------------|
-----5M-4M-5M----5M----5M-4M-5M----5M----5M-4M-5M---|
----------------------------------------------------|


----------------------------------------------------|
----------------------------------------------------|
--10----------9-----------8-----------5-------------|
----------------------------------------------------|
-----8M-7M-8M----7M-6M-7M----6M-5M-6M----3M-2M-3M---|
----------------------------------------------------|


----------------------------------------------------|
----------------------------------------------------|
----------------------------------------------------|
--3-----------------3-------------------------------|
-----5M-5M-5M-5M-5M----5M-5M-5M-5M-5M-4M-5M-5M-5M---|
----------------------------------------------------|


----------------------------------------------------|
----------------------------------------------------|
--------------------------------------8-------------|
----------------------------------------------------|
--3M-5M-5M-5M-2M-5M-5M-5M-1M-5M-5M-5M----6M-5M-6M---|
----------------------------------------------------|


----------------------------------------------------|
----------------------------------------------------|
--7-----------7-----7-----------7-----7-------------|
----------------------------------------------------|
-----5M-4M-5M----5M----5M-4M-5M----5M----5M-4M-5M---|
----------------------------------------------------|


----------------------------------------------------|
----------------------------------------------------|
--10----------9-----------8-----------5-------------|
----------------------------------------------------|
-----8M-7M-8M----7M-6M-7M----6M-5M-6M----3M-2M-3M---|
----------------------------------------------------|


----------------------------------------------------|
----------------------------------------------------|
----------------------------------------------------|
--3-----------------3-------------------------------|
-----5M-5M-5M-5M-5M----5M-5M-5M-5M-5M-4M-5M-5M-5M---|
----------------------------------------------------|


----------------------------------------------------|
----------------------------------------------------|
--------------------------------------8-------------|
----------------------------------------------------|
--3M-5M-5M-5M-2M-5M-5M-5M-1M-5M-5M-5M----6M-5M-6M---|
----------------------------------------------------|


----------------------------------------------------|
----------------------------------------------------|
--7-----------7-----7-----------7-----7-------------|
----------------------------------------------------|
-----5M-4M-5M----5M----5M-4M-5M----5M----5M-4M-5M---|
----------------------------------------------------|


----------------------------------------------------|
----------------------------------------------------|
--12----------12------------------------------------|
--------------------------11----------11------------|
-----10M9M-10M---10M9M-10M--------------------------|
-----------------------------9M-8M-9M----9M-8M-9M---|


----------------------------------------------------|
----------------------------------------------------|
----------------------------------------------------|
--3-----------------3-------------------------------|
-----5M-5M-5M-5M-5M----5M-5M-5M-5M-5M-4M-5M-5M-5M---|
----------------------------------------------------|


----------------------------------------------------|
----------------------------------------------------|
--------------------------------------8-------------|
----------------------------------------------------|
--3M-5M-5M-5M-2M-5M-5M-5M-1M-5M-5M-5M----6M-5M-6M---|
----------------------------------------------------|


----------------------------------------------------|
----------------------------------------------------|
--7-----------7-----7-----------7-----7-------------|
----------------------------------------------------|
-----5M-4M-5M----5M----5M-4M-5M----5M----5M-4M-5M---|
----------------------------------------------------|


----------------------------------------------------|
----------------------------------------------------|
--10----------9-----------8-----------5-------------|
----------------------------------------------------|
-----8M-7M-8M----7M-6M-7M----6M-5M-6M----3M-2M-3M---|
----------------------------------------------------|


----------------------------------------------------|
----------------------------------------------------|
----------------------------------------------------|
--19M15M14M0M-14M15M19M15M14M0M-14M15M19M15M14M0M---|
----------------------------------------------------|
----------------------------------------------------|


----------------------------------------------------|
----------------------------------------------------|
----------------------------------------------------|
--15M14M11M0M-11M14M15M14M11M0M-11M14M15M14M11M0M---|
----------------------------------------------------|
----------------------------------------------------|


----------------------------------------------------|
----------------------------------------------------|
----------------------------------------------------|
--7M-6M-3M-0M----0M-0M-0M---------------------------|
--------------4M-------------5M-5M-5M----5M-5M-5M---|
--------------------------6M----------5M------------|


--------------------------------------------------------------------------------
--------------------------------------------------------------------------------
--------------------------------------------------------------------------------
--------------------------------------------------------------------------------
--------------------------------------------------------------------------------
--1M-1M-1M----1M----1M-1M-1M----1M----1M----1M----5M-5M-5M----5M----5M-5M-5M----


--------------------|----------------------------------------------------|
--------------------|----------------------------------------------------|
--------------------|----------------------------------------------------|
--------------------|--0M-14M15M0M-15M18M19M0M-15M17M18M0M-14M15M17M0M---|
--------------------|----------------------------------------------------|
5M----5M----5M------|----------------------------------------------------|


----------------------------------------------------|
----------------------------------------------------|
----------------------------------------------------|
--0M-11M14M15M15M15M0M-0M-14M14M0M-0M-11M11M0M-0M---|
----------------------------------------------------|
----------------------------------------------------|


----------------------------------------------------|
----------------------------------------------------|
----------------------------------------------------|
--7h-3--0-----6h-3--0-----3-------------------------|
-----------4M----------4M----4M-4M------------------|
-----------------------------------5M-5M-1M-1M-5M---|


--------------------------------------------------------------------------------
--------------------------------------------------------------------------------
--------------------------------------------------------------------------------
--------------------------------------------------------------------11h---15h---
--------------------------------------------------------------12----------------
--1M-1M-2M----3M----3M-4M-5M----6M----7M----8M----9h----13----------------------


--------------------|----------------------------------------------------|
--------------------|----------------------------------------------------|
--------------------|----------------------------------------------------|
11------------------|--0--14-15-0--14-15-0--15-17-0--14-15---------------|
------12------------|--------------------------------------16-17-19-16---|
------------13------|----------------------------------------------------|


-----------------------17-22-17---------------------|
-----------------17-18----------18-17---------------|
-----------15-19----------------------19-15---------|
-----15-19----------------------------------19-15---|
--17------------------------------------------------|
----------------------------------------------------|


----------------------------------------------------|
----------------------------------------------------|
----------------------------------------------------|
--14M14M14M15M15M15M--------------------------------|
--------------------12M12M12M16M16M16M---------16M--|
--------------------------------------15M15M15M-----|


----------------------------------------|
----------------------------------------|
----------------------------------------|
--------------------------11------------|
--16M16M------------------12------------|
--------12M12M12M13M13M13M--------------|


----------------------------------------------------|
----------------------------------------------------|
----------------------------------------------------|
--0--14-15-0--14-15-0--15-17-0--14-15---------------|
--------------------------------------16-17-19-16---|
----------------------------------------------------|


-----------------------17-22-17---------------------|
-----------------17-18----------18-17---------------|
-----------15-19----------------------19-15---------|
-----15-19----------------------------------19-15---|
--17------------------------------------------------|
----------------------------------------------------|


----------------------------------------------------|
----------------------------------------------------|
----------------------------------------------------|
--14M14M14M15M15M15M7M-7M-7M-11M11M11M---------11M--|
--------------------------------------10M10M10M-----|
----------------------------------------------------|


----------------------------------------|
----------------------------------------|
----------------------------------------|
--11M11M------------------2L------------|
--------7M-7M-7M-8M-8M-8M-4L------------|
----------------------------------------|


----------------------------------------------------|
----------------------------------------------------|
----------------------------------------------------|
--2-----------------------------------------1--2----|
--4--1M-2M-3M-4-----------------1M-2M-3M-4M---------|
--------------------1M-2M-3-------------------------|


----------------------------------------------------|
----------------------------------------------------|
----------------------------------------------------|
--3-----------------3-------------------------------|
-----5M-5M-5M-5M-5M----5M-5M-5M-5M-5M-4M-5M-5M-5M---|
----------------------------------------------------|


----------------------------------------------------|
----------------------------------------------------|
--------------------------------------8-------------|
----------------------------------------------------|
--3M-5M-5M-5M-2M-5M-5M-5M-1M-5M-5M-5M----6M-5M-6M---|
----------------------------------------------------|


----------------------------------------------------|
----------------------------------------------------|
--7-----------7-----7-----------7-----7-------------|
----------------------------------------------------|
-----5M-4M-5M----5M----5M-4M-5M----5M----5M-4M-5M---|
----------------------------------------------------|


----------------------------------------------------|
----------------------------------------------------|
--10----------9-----------8-----------5-------------|
----------------------------------------------------|
-----8M-7M-8M----7M-6M-7M----6M-5M-6M----3M-2M-3M---|
----------------------------------------------------|


----------------------------------------------------|
----------------------------------------------------|
----------------------------------------------------|
--3-----------------3-------------------------------|
-----5M-5M-5M-5M-5M----5M-5M-5M-5M-5M-4M-5M-5M-5M---|
----------------------------------------------------|


----------------------------------------------------|
----------------------------------------------------|
--------------------------------------8-------------|
----------------------------------------------------|
--3M-5M-5M-5M-2M-5M-5M-5M-1M-5M-5M-5M----6M-5M-6M---|
----------------------------------------------------|


----------------------------------------------------|
----------------------------------------------------|
----------------------------------------------------|
----------------------------------------------------|
--8M-7M-6M-5M-6M-7M-8M-7M-6M-5M-6M-7M-8M-7M-6M-5M---|
----------------------------------------------------|


----------------------------------------------------|
----------------------------------------------------|
----------------------------------------------------|
----------------------------------------------------|
--11M10M8M-7M-11M10M8M-7M-8M-7M-5M-4M-8M-7M-5M-4M---|
----------------------------------------------------|


----------------------------------------------------|
----------------------------------------------------|
----------------------------------------------------|
--3-----------------3-------------------------------|
-----5M-5M-5M-5M-5M----5M-5M-5M-5M-5M-4M-5M-5M-5M---|
----------------------------------------------------|


----------------------------------------------------|
----------------------------------------------------|
--------------------------------------8-------------|
----------------------------------------------------|
--3M-5M-5M-5M-2M-5M-5M-5M-1M-5M-5M-5M----6M-5M-6M---|
----------------------------------------------------|


----------------------------------------------------|
----------------------------------------------------|
--7-----------7-----7-----------7-----7-------------|
----------------------------------------------------|
-----5M-4M-5M----5M----5M-4M-5M----5M----5M-4M-5M---|
----------------------------------------------------|


----------------------------------------------------|
----------------------------------------------------|
----------------------------------------------------|
--8-----------8-----------5-----------5-------------|
----------------------------------------------------|
-----6M-5M-6M----6M-5M-6M----3M-2M-3M----3M-2M-3M---|


----------------------------------------------------|
----------------------------------------------------|
----------------------------------------------------|
--3-----------------3-------------------------------|
-----5M-5M-5M-5M-5M----5M-5M-5M-5M-5M-4M-5M-5M-5M---|
----------------------------------------------------|


----------------------------------------------------|
----------------------------------------------------|
--------------------------------------8-------------|
----------------------------------------------------|
--3M-5M-5M-5M-2M-5M-5M-5M-1M-5M-5M-5M----6M-5M-6M---|
----------------------------------------------------|


----------------------------------------------------|----------------|-------|
----------------------------------------------------|----------------|-------|
--7-----------7-----7-----------7-----7-------------|----------------|-------|
----------------------------------------------------|----------------|-------|
-----5M-4M-5M----5M----5M-4M-5M----5M----5M-4M-5M---|--8L-8s-13L13~--|--17L--|
----------------------------------------------------|--6L-6s---------|-------|


-------|-------|-------|-------|-------|-------|----------------------------|
-------|-------|-------|-------|-------|-------|----------------------------|
-------|-------|-------|--7L---|--7L---|--7L---|--7L----------7-------------|
-------|-------|-------|--7L---|--7L---|--7L---|--7L----------7--------7L---|
--17~--|-------|-------|--5L---|--5L---|--5L---|--5L----------5--------7L---|
-------|-------|-------|-------|-------|-------|-----------------------5L---|


-------|-------|-------|----------------------------------------------------|
-------|-------|-------|----------------------------------------------------|
-------|-------|--6L---|--6-------------------------------------------------|
--7----|--8----|--6L---|--6-----------------------------------------1--2----|
--7----|--8----|--4L---|--4--1M-2M-3M-4-----------------1M-2M-3M-4M---------|
--5----|--6----|-------|--------------------1M-2M-3-------------------------|


----------------------------|----------------------------|
----------------------------|----------------------------|
--------10-------10---------|--10~---------9~------------|
--------------7M----7M------|--------7M----------7M------|
--8h-5-----5M----------5M---|-----------5M----------5M---|
----------------------------|----------------------------|


----------------------------------------------------|
----------------------------------------------------|
----------------------------------------------------|
--7-----------------5-----------------3-------------|
--4-----4M-4M-4M----4-----4M-4M-4M----4-----4M------|
----------------------------------------------------|


----------------------------------------------------|
----------------------------------------------------|
----------------------------------------------------|
--2-----------------------------------------1--2----|
--4-----2M-3M-4-----------------1M-2M-3M-4M---------|
--------------------1M-2M-3-------------------------|


----------------------------|----------------------------|
----------------------------|----------------------------|
--------10-------10---------|--10~---------9~------------|
--------------7M----7M------|--------7M----------7M------|
--8h-5-----5M----------5M---|-----------5M----------5M---|
----------------------------|----------------------------|


----------------------------------------------------|
----------------------------------------------------|
----------------------------------------------------|
--7-----------------5-----------------3-------------|
--4-----4M-4M-4M----4-----4M-4M-4M----4-----4M------|
----------------------------------------------------|


----------------------------------------------------|-------|-------|-------|
----------------------------------------------------|-------|-------|--2----|
--------------------------------------------2L------|--2----|--3----|--2L---|
--2-----------------------------------------2L------|--2----|--3----|--3L---|
--4-----2M-3M-4-----------------1M-2M-3M-4M-0L------|--0----|--1----|--4L---|
--------------------1M-2M-3-------------------------|-------|-------|-------|


----------------------------------------------------|-------|-------|-------|
----------------------------------------------------|-------|-------|-------|
--2-------------------------------------------------|-------|-------|-------|
--3-----------------------------------------1--2----|--0L---|--0L---|--0L---|
--4--1M-2M-3M-4-----------------1M-2M-3M-4M---------|--0L---|--0L---|--0L---|
--------------------1M-2M-3-------------------------|-------|-------|-------|


----------------------------|-------|-------|-------|
----------------------------|-------|-------|-------|
----------------------------|-------|-------|--6L---|
--0L----------0--------7L---|--7----|--8----|--6L---|
--0L----------0--------7L---|--7----|--8----|--4L---|
-----------------------5L---|--5----|--6----|-------|


----------------------------------------------------|
----------------------------------------------------|
--6-------------------------------------------------|
--6-----------------------------------------1--2----|
--4--1M-2M-3M-4-----------------1M-2M-3M-4M---------|
--------------------1M-2M-3-------------------------|


----------------------------|----------------------------|
----------------------------|----------------------------|
--------10-------10---------|--10~---------9~------------|
--------------7M----7M------|--------7M----------7M------|
--8h-5-----5M----------5M---|-----------5M----------5M---|
----------------------------|----------------------------|


----------------------------------------------------|
----------------------------------------------------|
----------------------------------------------------|
--7-----------------5-----------------3-------------|
--4-----4M-4M-4M----4-----4M-4M-4M----4-----4M------|
----------------------------------------------------|


----------------------------------------------------|
----------------------------------------------------|
----------------------------------------------------|
--2-----------------------------------------1--2----|
--4-----2M-3M-4-----------------1M-2M-3M-4M---------|
--------------------1M-2M-3-------------------------|


----------------------------|----------------------------|
----------------------------|----------------------------|
--------10-------10---------|--10~---------9~------------|
--------------7M----7M------|--------7M----------7M------|
--8h-5-----5M----------5M---|-----------5M----------5M---|
----------------------------|----------------------------|


----------------------------------------------------|
----------------------------------------------------|
----------------------------------------------------|
--7-----------------5-----------------3-------------|
--4-----4M-4M-4M----4-----4M-4M-4M----4-----4M------|
----------------------------------------------------|


----------------------------------------------------|-------|-------|-------|
----------------------------------------------------|-------|-------|-------|
--------------------------------------------2L------|--2----|--3----|--6L---|
--2-----------------------------------------2L------|--2----|--3----|--6L---|
--4-----2M-3M-4-----------------1M-2M-3M-4M-0L------|--0----|--1----|--4L---|
--------------------1M-2M-3-------------------------|-------|-------|-------|


----------------------------------------------------|
----------------------------------------------------|
--6-------------------------------------------------|
--6-----------------------------------------1--2L---|
--4--1M-2M-3M-4-----------------1M-2M-3M-4M---------|
--------------------1M-2M-3-------------------------|


----------------------------|-------|-------|-------|-------|-------|-------|
----------------------------|-------|-------|-------|-------|-------|-------|
----------------------------|-------|-------|-------|-------|-------|-------|
--2b-------0L----------0L---|--0----|-------|-------|-------|-------|-------|
-----------0L----------0L---|--0----|-------|-------|-------|-------|-------|
----------------------------|-------|-------|-------|-------|-------|-------|


-------|-------|-------|-------|-------|-------|-------|-------|-------|-------|
-------|-------|-------|-------|-------|-------|-------|-------|-------|-------|
-------|-------|-------|-------|-------|-------|-------|-------|-------|-------|
-------|-------|-------|-------|-------|-------|-------|-------|-------|-------|
-------|-------|-------|-------|-------|-------|-------|-------|-------|-------|
-------|-------|-------|-------|-------|-------|-------|-------|-------|-------|


-------|-------|-------|----------------------------------------------------|
-------|-------|-------|----------------------------------------------------|
-------|-------|-------|--7M----7M------------------------------------------|
-------|-------|-------|-----8M----8M-7M-4M-0M-4M-8M-7M-4M-0M----0M-4M-7M---|
-------|-------|-------|--------------------------------------6M------------|
-------|-------|-------|----------------------------------------------------|


----------------------------------------------------|
----------------------------------------------------|
--7M----7M------------------------------------------|
-----8M----8M-7M-4M-0M-4M-8M-7M-4M-0M----0M-4M-7M---|
--------------------------------------6M------------|
----------------------------------------------------|


----------------------------------------------------|
----------------------------------------------------|
--7M----7M------------------------------------------|
-----8M----8M-7M-4M-0M-4M-8M-7M-4M-0M----0M-4M-7M---|
--------------------------------------6M------------|
----------------------------------------------------|


----------------------------------------------------|
----------------------------------------------------|
--7M----7M------------------------------------------|
-----8M----8M-7M-4M-0M-4M-8M-7M-4M-0M----0M-4M-7M---|
--------------------------------------6M------------|
----------------------------------------------------|


----------------------------------------------------|
----------------------------------------------------|
--7-----7-------------------------------------------|
-----8-----8--7--4--0--4--8--7--4--0-----0--4--7----|
--------------------------------------6-------------|
----------------------------------------------------|


----------------------------------------------------|
----------------------------------------------------|
--7-----7-------------------------------------------|
-----8-----8--7--4--0--4--8--7--4--0-----0--4--7----|
--------------------------------------6-------------|
----------------------------------------------------|


----------------------------------------------------|
----------------------------------------------------|
--7-----7-------------------------------------------|
-----8-----8--7--4--0--4--8--7--4--0-----0--4--7----|
--------------------------------------6-------------|
----------------------------------------------------|


----------------------------------------------------|
----------------------------------------------------|
--7-----7-------------------------------------------|
-----8-----8--7--4--0--4--8--7--4--0-----0--4--7----|
--------------------------------------6-------------|
----------------------------------------------------|


----------------------------------------------------|
----------------------------------------------------|
----------------------------------------------------|
--3-----------------3-------------------------------|
-----5M-5M-5M-5M-5M----5M-5M-5M-5M-5M-4M-5M-5M-5M---|
----------------------------------------------------|


----------------------------------------------------|
----------------------------------------------------|
--------------------------------------6-------------|
----------------------------------------------------|
--3M-5M-5M-5M-2M-5M-5M-5M-1M-5M-5M-5M----4M-3M-4M---|
----------------------------------------------------|


----------------------------------------------------|
----------------------------------------------------|
--7-----------7-----7-----------7-----7-------------|
----------------------------------------------------|
-----5M-4M-5M----5M----5M-4M-5M----5M----5M-4M-5M---|
----------------------------------------------------|


----------------------------------------------------|
----------------------------------------------------|
--10----------9-----------8-----------5-------------|
----------------------------------------------------|
-----8M-7M-8M----7M-6M-7M----6M-5M-6M----3M-2M-3M---|
----------------------------------------------------|


----------------------------------------------------|
----------------------------------------------------|
----------------------------------------------------|
--3-----------------3-------------------------------|
-----5M-5M-5M-5M-5M----5M-5M-5M-5M-5M-4M-5M-5M-5M---|
----------------------------------------------------|


----------------------------------------------------|
----------------------------------------------------|
--------------------------------------8-------------|
----------------------------------------------------|
--3M-5M-5M-5M-2M-5M-5M-5M-1M-5M-5M-5M----6M-5M-6M---|
----------------------------------------------------|


----------------------------------------------------|
----------------------------------------------------|
----------------------------------------------------|
----------------------------------------------------|
--8M-7M-6M-5M-6M-7M-8M-7M-6M-5M-6M-7M-8M-7M-6M-5M---|
----------------------------------------------------|


----------------------------------------------------|
----------------------------------------------------|
--12----------11----------10----------9-------------|
----------------------------------------------------|
-----10M9M-10M---10M9M-10M--------------------------|
-----------------------------9M-8M-9M----9M-8M-9M---|


----------------------------------------------------|
----------------------------------------------------|
----------------------------------------------------|
--3-----------------3-------------------------------|
-----5M-5M-5M-5M-5M----5M-5M-5M-5M-5M-4M-5M-5M-5M---|
----------------------------------------------------|


----------------------------------------------------|
----------------------------------------------------|
--------------------------------------8-------------|
----------------------------------------------------|
--3M-5M-5M-5M-2M-5M-5M-5M-1M-5M-5M-5M----6M-5M-6M---|
----------------------------------------------------|


----------------------------------------------------|
----------------------------------------------------|
--7-----------7-----7-----------7-----7-------------|
----------------------------------------------------|
-----5M-4M-5M----5M----5M-4M-5M----5M----5M-4M-5M---|
----------------------------------------------------|


----------------------------------------------------|
----------------------------------------------------|
--10----------10----------6-----------6-------------|
----------------------------------------------------|
-----8M-7M-8M----8M-7M-8M----4M-3M-4M----4M-3M-4M---|
----------------------------------------------------|


----------------------------------------------------|
----------------------------------------------------|
----------------------------------------------------|
--3-----------------3-------------------------------|
-----5M-5M-5M-5M-5M----5M-5M-5M-5M-5M-4M-5M-5M-5M---|
----------------------------------------------------|


----------------------------------------------------|
----------------------------------------------------|
--------------------------------------8-------------|
----------------------------------------------------|
--3M-5M-5M-5M-2M-5M-5M-5M-1M-5M-5M-5M----6M-5M-6M---|
----------------------------------------------------|


----------------------------------------------------|----------|
----------------------------------------------------|----------|
--7-----------7-----7-----------7-------------------|----------|
----------------------------------------------------|--3-------|
-----5M-4M-5M----5M----5M-4M-5M----5M-5M-4M-3M-2M---|--1--x----|
----------------------------------------------------|-----x----|


----------------------------------------------------|
----------------------------------------------------|
--7--------8--------7-----11-------10-------8-------|
----------------------------------------------------|
-----5M-5M----5M-5M----5M----5M-5M----5M-5M----5M---|
----------------------------------------------------|


----------------------------------------------------|
----------------------------------------------------|
--7--------8--------7-----2--------3--------2-------|
----------------------------------------------------|
-----5M-5M----5M-5M----5M----5M-5M----5M-5M----5M---|
----------------------------------------------------|


----------------------------------------------------|
----------------------------------------------------|
--9--------8--------7-----6--------7--------8-------|
----------------------------------------------------|
-----4M-4M----4M-4M----4M----4M-4M----4M-4M----4M---|
----------------------------------------------------|


----------------------------------------------------|
----------------------------------------------------|
--9--------8--------7-----6--------7--------8-------|
----------------------------------------------------|
-----4M-4M----4M-4M----4M----4M-4M----4M-4M----4M---|
----------------------------------------------------|


----------------------------------------------------|
----------------------------------------------------|
--7--------8--------7-----11-------10-------8-------|
----------------------------------------------------|
-----5M-5M----5M-5M----5M----5M-5M----5M-5M----5M---|
----------------------------------------------------|


----------------------------------------------------|
----------------------------------------------------|
--7--------8--------7-----2--------3--------2-------|
----------------------------------------------------|
-----5M-5M----5M-5M----5M----5M-5M----5M-5M----5M---|
----------------------------------------------------|


----------------------------------------------------|
----------------------------------------------------|
--9--------8--------7-----6--------7--------8-------|
----------------------------------------------------|
-----4M-4M----4M-4M----4M----4M-4M----4M-4M----4M---|
----------------------------------------------------|


----------------------------------------------------|
----------------------------------------------------|
--9--------8--------7-----6--------7--------8-------|
----------------------------------------------------|
-----4M-4M----4M-4M----4M----4M-4M----4M-4M----4M---|
----------------------------------------------------|


----------------------------------------------------|
----------------------------------------------------|
----------------------------------------------------|
--8--------9--------8-----12-------11-------9-------|
----------------------------------------------------|
-----6M-6M----6M-6M----6M----6M-6M----6M-6M----6M---|


----------------------------------------------------|
----------------------------------------------------|
----------------------------------------------------|
--8--------9--------8-----3--------4--------3-------|
----------------------------------------------------|
-----6M-6M----6M-6M----6M----6M-6M----6M-6M----6M---|


----------------------------------------------------|
----------------------------------------------------|
----------------------------------------------------|
--5--------5h-4-------------------------------------|
-----------------------6h-5-----1M-3M-4M-3M-1M-3M---|
-----3M-3M-------3M-3M-------3M---------------------|


----------------------------------------------------|
----------------------------------------------------|
----------------------------------------------------|
----------------------------------------------------|
--4--------2--------4-----5--------7--------8-------|
--2--------0--------2-----3--------5--------6-------|


----------------------------------------------------|
----------------------------------------------------|
--7--------8--------7-----11-------10-------8-------|
----------------------------------------------------|
-----5M-5M----5M-5M----5M----5M-5M----5M-5M----5M---|
----------------------------------------------------|


----------------------------------------------------|
----------------------------------------------------|
--7--7--7-------------------------------------------|
-----------7--7--7--------8--------8--------8-------|
--------------------6M-6M----6M-6M----6M-6M----6M---|
----------------------------------------------------|


----------------------------------------------------|
----------------------------------------------------|
--6--------7--------6-----10-------9--------7-------|
----------------------------------------------------|
-----4M-4M----4M-4M----4M----4M-4M----4M-4M----4M---|
----------------------------------------------------|


----------------------------------------------------|
----------------------------------------------------|
--6--------7--------6-------------------------------|
--------------------------6--------7--------6-------|
-----4M-4M----4M-4M----4M----4M-4M----4M-4M----4M---|
----------------------------------------------------|


----------------------------------------------------|
----------------------------------------------------|
----------------------------------------------------|
--8--------9--------8-----12-------11-------9-------|
----------------------------------------------------|
-----6M-6M----6M-6M----6M----6M-6M----6M-6M----6M---|


----------------------------------------------------|
----------------------------------------------------|
----------------------------------------------------|
--8--------9--------8-----3--------4--------3-------|
----------------------------------------------------|
-----6M-6M----6M-6M----6M----6M-6M----6M-6M----6M---|


----------------------------------------------------|
----------------------------------------------------|
----------------------------------------------------|
--5--------5h-4-------------------------------------|
-----------------------6h-5-----1M-3M-4M-3M-1M-3M---|
-----3M-3M-------3M-3M-------3M---------------------|


----------------------------------------------------|-------|-------||
----------------------------------------------------|-------|-------||
----------------------------------------------------|-------|-------||
----------------------------------------------------|--0L---|--0----||
--4--------2--------4-----5--------7--------8-------|--0L---|--0----||
--2--------0--------2-----3--------5--------6-------|-------|-------||
Добавлено: 03.09.2013
Другие материалы по этой песне:

Страница создана 09.07.2013
http://primanota.ru/de-liriums-order/autistic-savant-chords.htm
Привет, Гость.
Предлагаем пройти революционный курс по гитаре.
Подарок от PrimaNota.Ru, забирай!