PrimaNota.ru - самый крупный в мире бесплатный архив песенных текстов, аккордов, табулатур и нот


De Heideroosjes - Rechtsstaat - текст песни, таба, видео

Регистрация Запомнить меня
Войти через:  Facebook Google Twitter Vk Yandex Mail.ru

De Heideroosjes - Rechtsstaat - текст песни, таба, видео

Печатать
Просмотров: 163
(Intro&Refrein)
|------------------------------------------|
|------------------------(4X:-5-5-5-5 enz.)|
|------------------------------------------|
|-2-2-2-2-(enz.)---------------------------|
|------------------------------------------|
|------------------------------------------|
|                                          |
|------------------------------------------|
|------------------------------------------|
|------------------------------------------|
|-2-2-2-2--5-5-5-5--7-7-7-7--9-9--1010-----|
|-2-2-2-2--5-5-5-5--7-7-7-7--9-9--1010-----|
|-0-0-0-0--3-3-3-3--5-5-5-5--7-7--8-8------| 4X


(Tussen stuk)
|-----3-2-----3-2------3-2-----------------|
|------------------------------------------|
Добавлено: 27.02.2012
Другие материалы по этой песне:
  • Аккорды и текст

Страница создана 27.02.2012
http://primanota.ru/de-heideroosjes/rechtsstaat-chords.htm
Привет, Гость.
Предлагаем пройти революционный курс по гитаре.
Подарок от PrimaNota.Ru, забирай!