PrimaNota.ru - самый крупный в мире бесплатный архив песенных текстов, аккордов, табулатур и нот


De Heideroosjes - Goede Tijden Slechte Tijden - текст песни, таба, видео

Регистрация Запомнить меня
Войти через:  Facebook Google Twitter Vk Yandex Mail.ru

De Heideroosjes - Goede Tijden Slechte Tijden - текст песни, таба, видео

Печатать
Просмотров: 134
Авторы музыки: Heideroosjes
Авторы текста: Marco Roelofs
   Artist : De Heideroosjes
   Song   : Goede Tijden, Slechte Tijden
   Album  : Choice For A Lost Generation ?!
   Tuning : Standard (E,A,D,G,B,e)

   Intro: 
   2x      
e: ---------------------------------------|
B: ---------------------------------------|
G: ------------------55555555-7777----5h7-|
D: -2222222-55555555-55555555-7777-5h7----|
A: -2222222-55555555-33333333-5555--------|
E: -0000000-33333333----------------------| 
pm: ....... ........ ........ ....

   Verse 1: ("Mevrouw Helmink, Uw maandverband zit fout..")
   4x 
e: ---------------------------------------|
B: ---------------------------------------|
G: ------------------55555555-7777----5h7-|
D: -2222222-55555555-55555555-7777-5h7----|
A: -2222222-55555555-33333333-5555--------|
E: -0000000-33333333----------------------| 
pm: ....... ........ ........ ....

   Chorus 1: ("Goede Tijden.. Slechte Tijden..")
   4x
e: ------------------------------------|
B: ------------------------------------|
G: -------------------5-5-5-5--2-2-2-2-|
D: -2-2-2-2--5-5-5-5--5-5-5-5--2-2-2-2-|
A: -2-2-2-2--5-5-5-5--3-3-3-3--0-0-0-0-|
E: -0-0-0-0--3-3-3-3-------------------|

   Verse 2: ("Meneer Harmsen hou eens op met dat gezeik..")
   4x
e: --------------------------------------------|
B: --------------------------------------------|
G: ---------------------5--55-5-5-7--77----5h7-|
D: -2--22-2-2-5--55-5-5-5--55-5-5-7--77-5h7----|
A: -2--22-2-2-5--55-5-5-3--33-3-3-5--55--------|
E: -0--00-0-0-3--33-3-3------------------------|
pm:    ..        ..        ..        ..  

   Chorus 2: ("Goede Tijden.. Slechte Tijden..")
   4x
e: ------------------------------------|
B: ------------------------------------|
G: -------------------5-5-5-5--2-2-2-2-|
D: -2-2-2-2--5-5-5-5--5-5-5-5--2-2-2-2-|
A: -2-2-2-2--5-5-5-5--3-3-3-3--0-0-0-0-|
E: -0-0-0-0--3-3-3-3-------------------|

   Bridge:
   1x                ("Het is toch zielig, dat een mens zoiets kijkt..")
e: -----|-----|-----|-----------------------------------|
B: -----|-----|-----|-----------------------------------|
G: -----|-9---|---9-|-----------------5--------7--------|
D: -2---|-9---|---9-|-2-------5-------5--------7--------|
A: -2---|-7---|---7-|-2-------5-------3--------5--------|
E: -0---|-----|-----|-0-------3-------------------------|

   Chorus 3: ("Goede Tijden.. Slechte Tijden..")
   4x                                   5th
e: ------------------------------------|---|
B: ------------------------------------|---|
G: -------------------5-5-5-5--2-2-2-2-|---|
D: -2-2-2-2--5-5-5-5--5-5-5-5--2-2-2-2-|-2-|
A: -2-2-2-2--5-5-5-5--3-3-3-3--0-0-0-0-|-2-|
E: -0-0-0-0--3-3-3-3-------------------|-0-|

   Lyrics:

   Verse 1
   Mevrouw Helmink uw maandverband zit fout 
   Foei Arthur, wat ben je toch weer stout 
   Dokter Simon ik vind je maar een lul 
   He Arnie, doe je haar eens in de krul! 
   Jef Alberts, met je scheve paardekop 
   En Linda, nou daar wil ik wel eens op 
   Daniel, je bent een oude zeur 
   Dianne, je hebt een kop als een deur 

   Chorus 
   Goede Tijden, Slechte Tijden [4x]

   Verse 2
   Meneer Harmsen hou eens op met dat gezeik 
   Laura, je bent een losgebroken lijk 
   Mickey, nou dat valt dan nog wel mee 
   Maar Suzanne, spoel die maar door de plee 
   Jef Alberts met je scheve paardekop 
   En Linda, nou daar wil ik wel eens op 
   Daniel, je bent een oude zeur 
   Dianne, je hebt een kop als een deur 

   Bridge
   Drie keer kijken voor het schrijven van dit lied 
   Maar zonder kotsbak haalde ik het einde niet 
   Het is toch zielig dat een mens zoiets kijkt 
   Alhoewel dat niet uit de kijkcijfers blijkt
Добавлено: 20.06.2012
Другие материалы по этой песне:
  • Аккорды и текст

Страница создана 04.06.2012
http://primanota.ru/de-heideroosjes/goede-tijden-slechte-tijden-chords.htm
Привет, Гость.
Предлагаем пройти революционный курс по гитаре.
Подарок от PrimaNota.Ru, забирай!