PrimaNota.ru - самый крупный в мире бесплатный архив песенных текстов, аккордов, табулатур и нот


De Heideroosjes - Break The Public Peace - текст песни, таба, видео

Регистрация Запомнить меня
Войти через:  Facebook Google Twitter Vk Yandex Mail.ru

De Heideroosjes - Break The Public Peace - текст песни, таба, видео

Печатать
Просмотров: 119
Уроки эстрадного вокала в Санкт-Петербурге
Break the public peace - De Heideroosjes


Verse:

E --------------------      --------------------|
B --------------------      --------------------|
G -----------444-666--      ---------444-666----|
D --6--------444-666--      --666666-444-666----|
A --6--------222-444--      --666666-222-444----|
E --4-----------------x4    --444444------------|x4

Chorus:

E --------------------      ----------------------|
B --------------------      ----------------------|
G ----------444444-3--      --------------444444--|
D --666-444-444444-3--      --666-444-666-444444--|
A --666-444-222222-1--      --666-444-666-222222--|
E --444-222-----------x2    --444-222-444---------|

Post-Chorus:

E -----------------------------------------------------------|
B -----------------------------------------------------------|
G --------------------------444444-3-------------------------|
D --666-444-666-444-666-444-444444-3-------------------------|
A --666-444-666-444-666-444-222222-1-------------------------|
E --444-222-444-222-444-222----------------------------------|

Verse

Chorus

Post-Chorus

Bridge/Outro:

E ---------            -----------------------------------------------|
B ---------            -----------------------------------------------|
G ---------            -----------------------------444-666-----------|
D -6r------            --4/6-666--4/6-666--4/6-666--444-666-----------|
A -6r------            --4/6-666--4/6-666--4/6-666--222-444-----------|
E -4r------            --2/4-444--2/4-444--2/4-444--------------------|x2
Pm:                          ***      ***      ***

E -----------------------------------------------------------|
B -----------------------------------------------------------|
G ----------------------------444-666------------------------|
D -4/66-XX--4/66-XX--4/66-XX--444-666------------------------|
A -4/66-XX--4/66-XX--4/66-XX--222-444------------------------|
E -2/44-XX--2/44-XX--2/44-XX---------------------------------|x4

E -----------------------------------------------------------|
B -----------------------------------------------------------|
G ----------------------------444-666------------------------|
D -4/66-66--4/66-66--4/66-66--444-666------------------------|
A -4/66-66--4/66-66--4/66-66--222-444------------------------|
E -2/44-44--2/44-44--2/44-44---------------------------------|x2

E -------------------------------|
B -------------------------------|
G -----------444-666-------------|
D --6--------444-666-6-----------|
A --6--------222-444-6-----------|
E --4----------------4-----------|
Добавлено: 07.05.2012
Другие материалы по этой песне:
  • Аккорды и текст

Страница создана 22.02.2012
http://primanota.ru/de-heideroosjes/break-the-public-peace-chords.htm
Привет, Гость.
Предлагаем пройти революционный курс по гитаре.
Подарок от PrimaNota.Ru, забирай!