PrimaNota.ru - самый крупный в мире бесплатный архив песенных текстов, аккордов, табулатур и нот


D.D.T. - не стреляй - таба, видео

Регистрация Запомнить меня
Войти через:  Facebook Google Twitter Vk Yandex Mail.ru

D.D.T. - не стреляй - таба, видео

Печатать
Просмотров: 166
-------------------------------------------------------------------------------
                            Не Стреляй - ДДТ
-------------------------------------------------------------------------------

Tabbed by: XCrusherX@gmail.com

Rhythm not transcribed, but it shouldn't be too hard to figure out.

Chord names for live performance playstyle (see bottom):

e-2----3----3----0----0----0-|
b-3----3----3----2----4----0-|
g-2----0----0----0----4----0-|
D-0----2----0----2----4----2-|
A------2----2----0----2----2-|
E------0----3--------------0-|
  D    Em7  G    A7   B    Em


Intro
-------

Guitar 1 (Capo on 7th fret):
e-3-3-3-3-3-3-3-3-3-3-3-3-3-3-3-3-|
b-3-3-3-3-3-3-3-3-3-3-3-3-3-3-3-3-|
g-0-0-0-0-0-0-0-0-0-0-0-0-0-0-0-0-| x6
D---------------------------------|
A---------------------------------|
E---------------------------------|

e-3-3-3-3-3-3-3-3-3-3-3-3-3-3-3-3-3-3-3-3-3-3-3-3-3-3-3-3-3-3-3-3-|
b-3-3-3-3-3-3-3-3-3-3-3-3-3-3-3-3-3-3-3-3-3-3-3-3-3-3-3-3-3-3-3-3-|
g-4-4-4-4-4-4-4-4-4-4-4-4-4-4-4-4-0-0-0-0-0-0-0-0-0-0-0-0-0-0-0-0-|
D-----------------------------------------------------------------|
A-----------------------------------------------------------------|
E-----------------------------------------------------------------|

Relies heavily on the bass and other guitar, so on its own this is pretty boring.


Guitar 2:
e-----2p0---------3---------5---------3-------2p0----------3---------5---------3--|
b---------------3---------3---------3-------------3------3---------3---------3----|
g---2---------0---------0---------0---------2----------0---------0---------0------|
D-0---------0---------0---------0---------0----------0---------0---------0--------|
A---------------------------------------------------------------------------------|
E---------------------------------------------------------------------------------|

e-----2p0---------3---------5---------3-------2p0----------3---------5---------3--|
b---------3-----3---------3---------3--------------------3---------3---------3----|
g---2---------0---------0---------0---------2----------0---------0---------0------|
D-0---------0---------0---------0---------0----------0---------0---------0--------|
A---------------------------------------------------------------------------------|
E---------------------------------------------------------------------------------|

Solo Guitar:
e----------------------------------------------|
b-----------------------------------10b12b10---|
g--------------------7--7/11~------------------|
D-/7~------------7h9---------------------------|
A----------------------------------------------|
E----------------------------------------------|


Verse
------

Guitar 1 (Capo on 7th fret):
e-3-3-3-3-3-3-3-3-3-3-3-3-3-3-3-3-|
b-3-3-3-3-3-3-3-3-3-3-3-3-3-3-3-3-|
g-0-0-0-0-0-0-0-0-0-0-0-0-0-0-0-0-| x2
D---------------------------------|
A---------------------------------|
E---------------------------------|

e-7-7-7-7-7-7-7-7-7-7-7-7-7-7-7-7-3-3-3-3-3-3-3-3-3-3-3-3-3-3-3-3-|
b-5-5-5-5-5-5-5-5-5-5-5-5-5-5-5-5-3-3-3-3-3-3-3-3-3-3-3-3-3-3-3-3-|
g-4-4-4-4-4-4-4-4-4-4-4-4-4-4-4-4-0-0-0-0-0-0-0-0-0-0-0-0-0-0-0-0-|
D-----------------------------------------------------------------|
A-----------------------------------------------------------------|
E-----------------------------------------------------------------|

Repeat once

Guitar 2:
e-----2p0---------3---------5---------3----------0---------0---------3---------5--|
b---------3-----3---------3---------3----------4---------3---------3---------3----|
g---2---------0---------0---------0----------4---------2---------2---------2------|
D-0---------0---------0---------0--------------------5---------0---------0--------|
A-----------------------------------------2---------------------------------------|
E---------------------------------------------------------------------------------|

Repeat once

Chorus
-------

Guitar 1 (Capo on 7th fret):
e-3-3-3-3-3-3-3-3-3-3-3-3-3-3-3-3-|
b-3-3-3-3-3-3-3-3-3-3-3-3-3-3-3-3-|
g-0-0-0-0-0-0-0-0-0-0-0-0-0-0-0-0-| x2
D---------------------------------|
A---------------------------------|
E---------------------------------|

e-3-3-3-3-3-3-3-3-3-3-3-3-3-3-3-3-3-3-3-3-3-3-3-3-3-3-3-3-3-3-3-3-|
b-3-3-3-3-3-3-3-3-3-3-3-3-3-3-3-3-3-3-3-3-3-3-3-3-3-3-3-3-3-3-3-3-|
g-4-4-4-4-4-4-4-4-4-4-4-4-4-4-4-4-4-4-4-4-4-4-4-4-0-0-0-0-0-0-0-0-|
D-----------------------------------------------------------------|
A-----------------------------------------------------------------|
E-----------------------------------------------------------------|

e-3-3-3-3-3-3-3-3-3-3-3-3-3-3-3-3-|
b-3-3-3-3-3-3-3-3-3-3-3-3-3-3-3-3-|
g-0-0-0-0-0-0-0-0-0-0-0-0-0-0-0-0-| x2
D---------------------------------|
A---------------------------------|
E---------------------------------|


Guitar 2:
e-----2p0---------3---------5---------3-------2p0----------3---------5---------3--|
b---------------3---------3---------3--------------------3---------3---------3----|
g---2---------0---------0---------0---------2----------0---------0---------0------|
D-0---------0---------0---------0---------0----------0---------0---------0--------|
A---------------------------------------------------------------------------------|
E---------------------------------------------------------------------------------|

e-----2p0---------3---------5---------3-------2p0----------3---------5---------3--|
b---------------3---------3---------3-------------3------3---------3---------3----|
g---2---------0---------0---------0---------2----------0---------0---------0------|
D-0---------0---------0---------0---------0----------0---------0---------0--------|
A---------------------------------------------------------------------------------|
E---------------------------------------------------------------------------------|


Solo Guitar:
e------------------------------------------------------------------|
b----------------------------------10h12--10~----------------------|
g----------7~------9--9/11~----------------------------------------|
D-/7~-7h9~-----------------------------------------------7h9--7~---|
A------------------------------------------------------------------|
E------------------------------------------------------------------|

Variance in the second chorus:
e------------------10-9-------------------------------------------------|
b-----------------------------------------------------------------------|
g----------7~-----------11---------12--11-------------------------------|
D-/7~-7h9~-----------------------------------------------7h9--7~-----7~-|
A-----------------------------------------------------------------------|
E-----------------------------------------------------------------------|


Solo / Outro (until fadeout, feel free to add the rest)
------------

Guitar 1 and 2 like in the chorus

Solo Guitar :
(You can also make use of more strings to make it easier, but to me it
sounds like this is done with a lot of slides between the notes)
e------------------------------------------------------------------------|
b-3-7-8-10b12b10~--/3-7-8-10b12b10~--/3-7-8-10--15b17-15--12--10b12b10~--|
g------------------------------------------------------------------------|
D------------------------------------------------------------------------| x2
A------------------------------------------------------------------------|
E------------------------------------------------------------------------|

e----------------------------------------|
b-7-8-7--------------------7-8-7---------|
g-------7------------------------7-------|
D---------7~----7h9~---------------7~----| x2
A----------------------------------------|
E----------------------------------------|

Repeat once

Afterwards we have two guitars:

Solo Guitar 1:
e----------------------------------------------|
b----------------------------------------------|
g----------------------------------------------|
D-7h9-7--5--4--2--0-----------0----2----4h5h7--|
A--------------------4--2---0------------------|
E----------------------------------------------|

e-----------------------------------------------------------------------|
b---------------10--------8-10------------------------------------------|
g-----7--9-11------7---11------7-------------11---------7----9----11----|..
D-7h9----------------------------7------7/9-----7--7/9------------------|
A-----------------------------------------------------------------------|
E-----------------------------------------------------------------------|

Solo Guitar 2:
e-----------------------------------------------------------------------------------------|
b--------------------------10--12--14--15--17--17b19~---17b19~--17b19-17b19~--17b19~b17---|
g---------6--7--9--11--12-----------------------------------------------------------------|
D-----7h9---------------------------------------------------------------------------------|
A-----------------------------------------------------------------------------------------|
E-----------------------------------------------------------------------------------------|

e---------------------------------------17-------17----------------------------------------------------|
b-15-17h19-17-15-17~------15--14--14h15----14h15----15-15~----------------------10---------------------|
g-----------------------------------------------------------9b11---9b11-9b11-------11b9----7--9--9b11--|..
D------------------------------------------------------------------------------------------------------|
A------------------------------------------------------------------------------------------------------|
E------------------------------------------------------------------------------------------------------|
                                                                                                 p.h.


Chords (lyrics taken from russmus.net):

Не стреляй в воробьев, не стреляй в голубей.
        D                      Em7
Не стреляй просто так из рогатки своей.
        G                  A7
Эй, малыш, не стреляй и не хвастай другим,
       B                   Em
что без промаха бьешь по мишеням живым.
        G                  A7
Ты все тиры излазил народ удивлял,
       D              Em7
как отличный стрелок призы получал.
      G                 A7
Бил с улыбкой не целясь, навскидку и влет,
       B                     Em
а кругом говорили: "Вот парню везет."
     G                  A7


Не стреляй!
        D     Em7     G
Не стреля-а-й!
        A7
Не стреля-а-а-а-а-а-а-а-а-а-а-й!
        D     Em7     G     A7
Не стреля-а-а-а-а-а-а-а-а-а-а-й!
        D     Em7     G     A7
Не стреляй!
        D     Em7     G     A7


И случилось однажды о чем так мечтал. Он в 
     D                Em7            
горящую точку планеты попал.
   G             A7
А когда наконец-то вернулся домой, 
     B                Em
он свой старенький тир обходил стороной.
        G                  A7
И когда кто-нибудь вспоминал о войне,
     D                   Em7
Он топил свою совесть в тяжелом вине.
     G                    A7
Перед ним как живой тот парнишка стоял,
      B                    Em
тот который его об одном умолял:
      G              A7


Не стреляй!
        D     Em7     G
Не стреля-а-й!
        A7
Не стреля-а-а-а-а-а-а-а-а-а-а-й!
        D     Em7     G     A7
Не стреля-а-а-а-а-а-а-а-а-а-а-й!
        D     Em7     G     A7
Не стреляй!
        D     Em7     G     A7
Добавлено: 26.07.2015
Вам также может быть интересно:
Другие материалы по этой песне:
  • Аккорды и текст

Страница создана 26.07.2015
http://primanota.ru/ddt-3/ne-strelyai-chords.htm
Привет, Гость.
Предлагаем пройти революционный курс по гитаре.
Подарок от PrimaNota.Ru, забирай!