PrimaNota.ru - самый крупный в мире бесплатный архив песенных текстов, аккордов, табулатур и нот


Dd Dumbo - I Woke Up Covered In Sand - таба, видео

Регистрация Запомнить меня
Войти через:  Facebook Google Twitter Vk Yandex Mail.ru

Dd Dumbo - I Woke Up Covered In Sand - таба, видео

Печатать
Просмотров: 87
-------------------------------------------------------------------------------
                  I Woke Up Covered In Sand - D. D Dumbo
-------------------------------------------------------------------------------
Tabbed by: wixbot
E-mail:

Tuning: standard

This is my guess. Just loved the little riff that starts at 1:47, didn't figure out 
the rest of the song. Give it a listen at least for sure


e|---------------------------------------------------------------------------|
B|---------------------------------------------------------------------------|
G|--7----7----7----7h9--7----------7h9------------------------5--------------|
D|-------------------------7----7-------7----5----5----5-5h7-----5-----------|
A|---------------------------------------------------------------------------|
E|---------------------------------------------------------------------------|

e|---------------------------------------------------------------------------|
B|---------------------------------------------------------------------------|
G|---------------5-----------------------------------------------------------|
D|--5--5--5-5h7-----3----3--3--3h5s7-----------------------------------------|
A|---------------------------------------------------------------------------|
E|---------------------------------------------------------------------------|

e|---------------------------------------------------------------------------|
B|---------------------------------------------------------------------------|
G|--7----7----7----7h9--7----------7h9------------------------5--------------|
D|-------------------------7----7-------7----5----5----5-5h7-----5-----------|
A|---------------------------------------------------------------------------|
E|---------------------------------------------------------------------------|

e|---------------------------------------------------------------------------|
B|---------------------------------------------------------------------------|
G|---------------5-------------------------5--7--7s9--9--9--9--7-------------|
D|--5--5--5-5h7-----3----3--3--3h5--5s7--7-----------------------------------|
A|---------------------------------------------------------------------------|
E|---------------------------------------------------------------------------|



************************************

| /   slide up
| \   slide down
| h   hammer-on
| p   pull-off
| ~   vibrato
| +   harmonic
| x   Mute note
| b   Bend
| pb  Pre-bend
| br  Bend release
| pbr Pre-bend release
| brb Bend release bend

************************************
Добавлено: 17.10.2015
Другие материалы по этой песне:
  • Аккорды и текст

Страница создана 17.10.2015
http://primanota.ru/dd-dumbo/i-woke-up-covered-in-sand-chords.htm
Привет, Гость.
Предлагаем пройти революционный курс по гитаре.
Подарок от PrimaNota.Ru, забирай!