PrimaNota.ru - самый крупный в мире бесплатный архив песенных текстов, аккордов, табулатур и нот


Daytrader - Living - аккорды и текст, видео

Регистрация Запомнить меня
Войти через:  Facebook Google Twitter Vk Yandex Mail.ru

Daytrader - Living - аккорды и текст, видео

Печатать
Просмотров: 122
Living
Daytrader
Tuning: Half-Step Down

You gotta listen for the chord changes on this one, they're a little tricky. Also, 
look at the tab at the bottom for the lead sort of stuff.

Em

C                       D*                 G     G/F#
Take another drive from haunted streets to rocky beaches
Em                                 C
Out of state shows, house parties, hated home but it wanted me

G   G/F#        
So I should know

Em*

C              G      G/F#                  Em      C          
better than to resist what I know's inevitable

G  G/F#          Em     D         C
So I should know better than this now
Em C  G                Em      D      C
No, I never learned to give it up somehow.
Em   C    G

Em

C                       D                   G        G/F#
Take another drink from corner dive bars to basement scenes
Em                                  C                              
Moved out west to end up back east, got a career it didn't stick

G  G/F#          Em     D         C
So I should know better than this now
Em C  G             Em         D      C
No, I never learned to give it up somehow
Em  C   G

Em D  C             Em     C         G         
So    I should know better than this now
Em D  C                       Em     C            G 
So    I, I should have known, better, better than this now

           Em               D                     C
I tried to look, I tried to change, but just went back from where I came
         Em   C            G
Couldn't find  better than this

Em D C 
So   I should know better,
Em    C     G
Better than this. 


The two lead parts (marked with an *):
VERSE
   Em                 C               D               G       G/F#
eb|-------------------------------------------------------------------|
Bb|----------------------------------------------------------------|
Gb|----------------5-5-5-5-5-5-5-5-7-7-7-7-9-9-1111----------------|
Db|-------------------5-5-5-5-5-5-5-5-7-7-7-7-x-x-x-x-5-5-5-5-4-4-4-4-|
Ab|-2-2-2-2-2-2-------3-3-3-3-3-3-3-3-5-5-5-5-7-7-9-9-5-5-5-5-5-5-5-5-|
Eb|-0-0-0-0-0-0---------------------------------------3-3-3-3-2-2-2-2-|


THIS IS RIGHT BEFORE THE "SO I SHOULD KNOW" PART
  Em                  C                             G       G/F#
e|-------------------------------------------------|
B|-------------------------------------------------|
G|-9--9--9--9----11---12--12--12-12---12-----------|"So-o-o I should know
D|-x--x--x--x----x----x---x---x--x----x------------|
A|-7--7--7--7----9----10--10--10-10---10-----------|
E|-------------------------------------------------|
Добавлено: 17.06.2013
Другие материалы по этой песне:
  • Аккорды и текст

Страница создана 17.06.2013
http://primanota.ru/daytrader/living-chords.htm
Привет, Гость.
Предлагаем пройти революционный курс по гитаре.
Подарок от PrimaNota.Ru, забирай!