PrimaNota.ru - самый крупный в мире бесплатный архив песенных текстов, аккордов, табулатур и нот


Daytrader - Letter To A Former Lover - таба, видео

Регистрация Запомнить меня
Войти через:  Facebook Google Twitter Vk Yandex Mail.ru

Daytrader - Letter To A Former Lover - таба, видео

Печатать
Просмотров: 151
one of my favorites off the album.
Rate, Comment, Enjoy!

Tuning: Half Step Down

Intro(x4): I know....still I care greatly
eb|----------------------------------------------------|
Bb|----------------------------------------------------|
Gb|-99999999-77777777----------------------------------|
Db|-99999999-77777777-555555555555---------------------|
Ab|-77777777-55555555-555555555555---------------------|
Eb|-------------------333333333333---------------------|
    ******** ******** ************

Intro pt 2:I hope you feel the same way that I do
eb|----------------------------------------------------|
Bb|----------------------------------------------------|
Gb|-99999999-77777777----------------------------------|
Db|-99999999-77777777----------------------------------|
Ab|-77777777-55555555----------------------------------|
Eb|----------------------------------------------------|

Pre-Chorus: hope you make it
eb|------------------------------------------------------|
Bb|------------------------------------------------------|
Gb|--5~--------------------------------------------------|
Db|--5~--------------------------------------------------|
Ab|--3~--------------------------------------------------|
Eb|------------------------------------------------------|

Chorus pt1 (x2): Hope you make it....you need to go.
eb|----------------------------------------------------|
Bb|----------------------------------------------------|
Gb|-5-55555555-4-4444444-7-777777777777----------------|
Db|-5-55555555-5-5555555-7-777777777777----------------|
Ab|-3-33333333-2-2222222-5-555555555555----------------|
Eb|----------------------------------------------------|

Chorus pt2(x2):Though our ups.....it finds you well
eb|---------------------------------------------|
Bb|---------------------------------------------|
Gb|--------------------55555555-----------------|
Db|-5~~~~~~~~-2~~~~~~~-55555555-----------------|
Ab|-5~~~~~~~~-2~~~~~~~-33333333-----------------|
Eb|-3~~~~~~~~-0~~~~~~~--------------------------|

pause

Verse(x2): remember, when I......so here's this one instead
eb|---------------------------------------------------------|
Bb|---------------------------------------------------------|
Gb|---------------------------------------------------------|
Db|-555555-555555-555555-555555-222222-222222-222222-222222-|
Ab|-555555-555555-555555-555555-222222-222222-222222-222222-|
Eb|-333333-333333-333333-333333-000000-000000-000000-000000-|

Pre-Chorus: to make it clear
eb|-----|
Bb|-----|
Gb|-5~~~|
Db|-5~~~|
Ab|-3~~~|
Eb|-----|

Chorus pt1 (x2): Hope you make it....you need to go.
eb|----------------------------------------------------|
Bb|----------------------------------------------------|
Gb|-5-55555555-4-4444444-7-777777777777----------------|
Db|-5-55555555-5-5555555-7-777777777777----------------|
Ab|-3-33333333-2-2222222-5-555555555555----------------|
Eb|----------------------------------------------------|

Chorus pt2(x2):Though our ups.....it finds you well
eb|----------------------------------------------------|
Bb|----------------------------------------------------|
Gb|---------------------------55555555-----------------|
Db|-5555555555555555-22222222-55555555-----------------|
Ab|-5555555555555555-22222222-33333333-----------------|
Eb|-3333333333333333-00000000--------------------------|

pause

Verse(x2): remember, when I drove up......the person you wanted
eb|---------------------------------------------------|
Bb|---------------------------------------------------|
Gb|---------------------------------------------------|
Db|-555555555555555555555555-222222222222222222222222-|
Ab|-555555555555555555555555-222222222222222222222222-|
Eb|-333333333333333333333333-000000000000000000000000-|

Pre-Solo pt1: sometime in the future....day of it.
eb|---------------|
Bb|---------------|
Gb|-5~~~4~~~7~~~--|
Db|-5~~~5~~~7~~~--|
Ab|-3~~~2~~~5~~~--|
Eb|---------------|

Pre Solo pt2(x2): it'll feel like...at least for a second.
eb|-------------------------------------------------|
Bb|-------------------------------------------------|
Gb|-555555555-44444444-7777777777777----------------|
Db|-555555555-55555555-7777777777777----------------|
Ab|-333333333-22222222-5555555555555----------------|
Eb|-------------------------------------------------|
    ********* ******** *************

Solo:
eb|--------------------10----------------------12121212--------------|
Bb|-10-1212121212121212--1210-10-12121212121212--------12-10/88888888|
Gb|------------------------------------------------------------------|
Db|------------------------------------------------------------------|
Ab|------------------------------------------------------------------|
Eb|------------------------------------------------------------------|

eb|----------------------------------------------------|
Bb|-101010-888888888-----------------------------------|
Gb|----------------------------------------------------|
Db|----------------------------------------------------|
Ab|----------------------------------------------------|
Eb|----------------------------------------------------|

Chorus/Outro:Though our ups.....I'll see you again
eb|----------------------------------------------------|
Bb|----------------------------------------------------|
Gb|---------------------------55555555-----------------|
Db|-5555555555555555-22222222-55555555-----------------|
Ab|-5555555555555555-22222222-33333333-----------------|
Eb|-3333333333333333-00000000--------------------------|

Lyrics:
I know there's supposed to be a soul in my heart from too much tragedy
Does it always have to be that way?
We had our ups and downs, Still I care greatly
And I hope you feel the same way that I do
Hope you make it

Hope you make it on your own
Hope you find the direction you need to go
Though our ups and downs were frequent and intense
Like when I wrote that letter. It said I love you to death
You know our tragic stories are the best damn ones to tell
If you hear this song some time from now
I hope it finds you well

Remember when I wrote that song for you some months ago
It was a sad, sappy affair
A wretched lonely mess now laid to rest
So here's this one instead 
to make it clear

Hope you make it on your own
Hope you find the direction you need to go
Though our ups and downs were frequent and intense
Like when I wrote that letter. It said I love you to death
You know our tragic stories are the best damn ones to tell
If you hear this song some time from now
I hope it finds you well

Remember when I drove up to your New England town
Stayed in bed for three whole days
And I warned you even then I could not be the person you wanted
Sometime in the future we'll meet again
Smile and catch up, we'll make a day of it
And it'll feel like it's yesterday again, 
at least for a second

Hope you make it on your own
Hope you find the direction you need to go
Though our ups and downs were frequent and intense
Like when I wrote that letter
It said I love you to death
You know our tragic stories are the best damn ones to tell
If you hear this song some time from now
I hope it finds you well

And as far as this goes I know I have no regrets
We chose our own directions And I chose west
I chose west But I'm sure I'll see you again
Добавлено: 06.07.2013
Другие материалы по этой песне:
  • Аккорды и текст

Страница создана 02.07.2013
http://primanota.ru/daytrader/letter-to-a-former-lover-chords.htm
Привет, Гость.
Предлагаем пройти революционный курс по гитаре.
Подарок от PrimaNota.Ru, забирай!