PrimaNota.ru - самый крупный в мире бесплатный архив песенных текстов, аккордов, табулатур и нот


Dayshell - A Waste Of Space - таба, видео

Регистрация Запомнить меня
Войти через:  Facebook Google Twitter Vk Yandex Mail.ru

Dayshell - A Waste Of Space - таба, видео

Печатать
Просмотров: 171
                                           A Waste of Space
                                             by Dayshell
                                           tab by Archerdude

   Guitar 1
e|-5-----------------5---7-------------7-8-7-------|
B|-------------------------------------------8---7\|
G|-4-----------------4---4-------------------------|
D|-------------------------------------------------|
A|-------------------------------------------------|
E|-------------------------------------------------|
 | Guitar 2                                        |
e|-------------------------------------------------|
B|-----------------------5-------------------------|
G|-----0-----4-0-----4---4-----4-0---------0-----0-|
D|-2-----2---------2-----------------1-1-----1-----|
A|-------------------------------------------------|
E|-------------------------------------------------|

e|-------------------------------------------------|
B|\5---------5/7-----5-5/8-------------------------|
G|-------------------------------------------------|
D|-------------------------------------------------|
A|-------------------------------------------------|
E|-------------------------------------------------|
 |                                                 |
e|-------------------------------------------------|
B|-------------------------------------------------|
G|-----0-----4-0---------------4-0-----4---0-----4-|
D|-0-----0---------0-------------------------------|
A|-------------------2--/4-----------4-------4-----|
E|-------------------------------------------------|

e|-12--------------------14------------------------|
B|-10--------------------10------------------------|
G|-------------------------------------------------|
D|-------------------------------------------------|
A|-------------------------------------------------|
E|-------------------------------------------------|
 |                                                 |
e|-------------------------------------------------|
B|-----------------------------------------5-------|
G|-----0-----4-----0-----------0-----4-------------|
D|-------------------------------------------------|
A|-3-----3-----------3---2-------2-----2-----------|
E|-------------------------------------------------|

e|-------------------------------------------------|
B|-5-----------------------------------------------|
G|-4-----------------------------------------------|
D|-------------------------------------------------|
A|-------------------------------------------------|
E|-------------------------------------------------|
 |                                                 |
e|-------------------------------------------------|
B|-------------------------------------------------|
G|-----0-----4-0-----0---------0-----4-0-----0-----|
D|-2-----2---------2-----2-2-----2---------2-------|
A|-------------------------------------------------|
E|-------------------------------------------------|
Добавлено: 29.12.2015
Другие материалы по этой песне:
  • Аккорды и текст

Страница создана 29.12.2015
http://primanota.ru/dayshell/waste-of-space-chords.htm
Привет, Гость.
Предлагаем пройти революционный курс по гитаре.
Подарок от PrimaNota.Ru, забирай!