PrimaNota.ru - самый крупный в мире бесплатный архив песенных текстов, аккордов, табулатур и нот


Days Of The New - Whimsical - текст песни, таба, видео

Регистрация Запомнить меня
Войти через:  Facebook Google Twitter Vk Yandex Mail.ru

Days Of The New - Whimsical - текст песни, таба, видео

Печатать
Просмотров: 151
"Whimsical"
Days of the New
tab by:t.wells

Noticed the other tab on here is way off so im putting mine up.There is 2 guitars so im
going to put both up instead fuse them together to where you can play both parts and
sounds good.The tab came out a little close with the numbers and dont feel like 
it so just listen to the song and you will get it.Its not hard.Anyways Enjoy and wait for
to come out!!


[intro]

Db------0---0-----------------------------------------------------|
Bb-------2-(3)---2-0---0h2----------------------------------------|
Gb-2h4--------------------0h2--2-----2---2------------------------|
Db----4----------------4-----4---4-----4--------------------------|
Bb-----0------------------3---3-3---3-3-3-------------------------|
Bb-0--------------------------------------------------------------|


Db------0---0------------------------4-4-5-4-2-2-4-2-------------|
Bb-------2-(3)---2-2h3p2p0--0-----------------------3------------|
Gb-2h4-------------------------2---------------------------------|
Db----4----------------------4-4---------------------------------|
Bb-----0-----------------------3---------------------------------|
Bb-0-------------------------------------------------------------|


Db------0--------0--------0-----4--------------------------------|
Bb-----0--------0--------0----0--0-------------------------------|
Gb----2--2/4---4--------4---------2------------------------------|
Db---4--------2---2/4--4-----------4-----------------------------|
Bb--0--------0--------0------0-3---------------------------------|
Bb-0--------0--------0------0------------------------------------|


Db--14-12-12-11-11-9-9-7-9-7-------------------------------------|
Bb----------------------7---7------0-----------------------------|
Gb-----------------------------2--(4)----------------------------|
Db----------------------------4-4--------------------------------|
Bb----------------------------0--0-------------------------------|
Bb----------------------------0----------------------------------|

[verse]

Db------------------------------------|
Bb------------------------------------|
Gb------------------------------------|
Db---0--2--0----4--0--2--0----4-------|
Bb--0--0--0----0--0--0--0----0--------|
Bb-0--3--0--3/5--0--3--0--3/5---------|

[pre chorus]

Db-----------------------------------------------------------------|
Bb-----------------------------------------------------------------|
Gb-4--2--1---------4--2--1---------4--2--1-------------------------|
Db--0--0--0--0-2-4--0--0--0---------0--0--0-2-2-2h4--2--0----------|
Bb---0--0--0---------0--0--0-3-0-3---0--0--0-0-----0--0--0--2h3p0--|
Bb--------------------------------------------------0--0--0--------|

[verse w/ variation]

Db-------------------------------------------------------------|
Bb-------------------------------------------------------------|
Gb-------------------------------------------------------------|
Db---0--2--0----4--0--2--0-------------------------------------|
Bb--0--0--0----0--0--0--0--3h5p3h5p3h5-------------------------|
Bb-0--3--0--3/5--0--3--0---------------------------------------|


>play pre chorus

[chorus]

Db-0~~~-0~~~-0~~~-0~~~-0~~~-0~~~-0~~~-0-0-4-0--------------------------|
Bb-0~~~-0~~~-0~~~-0~~~-0~~~-0~~~-0~~~-0-0-0-0--------------------------|
Gb-4~~~-0~~~-4~~~-2~~~-4~~~-0~~~-4~~~-2-2-2-2--------------------------|
Db-4~~~-0~~~-2~~~-4~~~-4~~~-0~~~-2~~~-4-4-4-4--------------------------|
Bb-0~~~-0~~~-0~~~-0~~~-0~~~-0~~~-0----0-0-0-0--------------------------|
Bb-0~~~----------------0~~~--------------------------------------------|


Db-0~~~-0~~~-0~~~-0~~~-0~~~-0~~~-0~~~-0----0-----------------------|
Bb-0~~~-0~~~-0~~~-0~~~-0~~~-0~~~-0~~~-0-0---0-0--------------------|
Gb-4~~~-0~~~-4~~~-2~~~-4~~~-0~~~-4~~~-2--2---2---------------------|
Db-4~~~-0~~~-2~~~-4~~~-4~~~-0~~~-2~~~-4---4------------------------|
Bb-0~~~-0~~~-0~~~-0~~~-0~~~-0~~~-0----0----------------------------|
Bb-0~~~----------------0~~~----------------------------------------|

[bridge/chorus pt.2]

Db-0----0-0----0-2h3p2p0-0-0-----0----0-0----0-2h3p2p0-0----0--------|
Bb-0---0--0----0--------0--0-----0---0--0----0--------0--0---0-0-----|
Gb-4--4---0----4-----------2-----4--4---0----4------------2---2------|
Db-4-4----0----2-----------4-----4-4----0----2-------------4---------|
Bb-0------0----0-----------0-----0------0----0----------0------------|
Bb-0-----------------------------0-----------------------------------|

>play verse


[outro/solo]

Db----------------------------------------------------------------|
Bb----------------------------------------------------------------|
Gb----4h7p4-----4^-4^---------------------------------------------|
Db-4h7-------4h7-----7-4-4h7\-------------------------------------|
Bb------------------------------3-5-5^-5^-3p0-3--5^---------------|
Bb----------------------------------------------------------------|

Db-------------------------------------------------------------|
Bb-------------------------------------------------------------|
Gb-------------------------------------------------------------|
Db-5/7-6-7-6-7-6-7-6-7/9-7-6------------0-0--------------------|
Bb--------------------------7-5-5h7-5--0-5-0-------------------|
Bb------------------------------------0------------------------|


Db-------------------------------------------------------------|
Bb-5-5--5-5--5-5--5-5-5/7--------------------------------------|
Gb-7----7----7----7-------9-7-7-9-9h10p9p7-9^\-----------------|
Db---------------------------9------------9--------------------|
Ab-------------------------------------------------------------|
Db-------------------------------------------------------------|


Db----------------   ----------------4-4-----------------------------|
Bb----------------   ----------------7-7-----------------------------|
Gb----------------   ----------------7-7-----------------------------|
Db---0--2--0---0--   ---0--2--0---0-------3--0---0-------------------|
Ab--0--0--0-----0-   --0--0--0-----0-----0--0-----0------------------|
Db-0--3--0--3/5---   -0--3--0--3/5------2--0--3/5--------------------|
Добавлено: 09.09.2013
Другие материалы по этой песне:

Страница создана 22.04.2012
http://primanota.ru/days-of-the-new/whimsical-chords.htm
Привет, Гость.
Предлагаем пройти революционный курс по гитаре.
Подарок от PrimaNota.Ru, забирай!