PrimaNota.ru - самый крупный в мире бесплатный архив песенных текстов, аккордов, табулатур и нот


Days Of The New - Dirty Road Live - таба, видео

Регистрация Запомнить меня
Войти через:  Facebook Google Twitter Vk Yandex Mail.ru

Days Of The New - Dirty Road Live - таба, видео

Печатать
Просмотров: 95
-------------------------------------------------------------------------------
			     Dirt Road(Live Bootleg) - Days Of The New
-------------------------------------------------------------------------------
Tabbed by:T.Wells

Tuning:Low To High- C#,F#,C#,F#,A,C#

I know there is no tab for this awesome song and to me I think this version of him 
it solo is better then the Red album version
though both awesome in their way the feeling of everything being stripped down to the 
and just Travis playing it makes it
that much more.Anyways here is everything and i also included from video's of different 
he picks it out though not hard i still
put examples to get you playing it.If you have any questions just contact me on here and 
me know.Thanks! Days Of The New/Tree Colors
will be out soon !!So make sure you pick it up and support this amazing artist!


----------------------------------------------------------------------|This part is played
------------------------------0---------0-----------------------------| Twice and sometimes
------0-----------0---------0---------0----------0-----------0--------|he varies on picking
----0-----------0------------------------------0-------------1--------|the opens.Depends on
-------------3-----------------------------------------------0--------|what live video you see
--5--------------------3----------5---------0----------------1--------|Like This example...

(Varied open note picking example)
-----0------0----------------------0------     ------------------------------|
-------0------0-------0------0-------0----     -------------------0------0---|
--------------------0------0------------0-     ---0--------0--------0------0-|
----------------------------------------1-     -----0--------0---------------|
----------3-----------------------------0-     ---------3--------------------|
-5---------------3------5-------0-------1-     -5---------------3------5-----|

----------0---------------0--------------0---------0---------0--------|The 3rd Time it's picked
--------0---0----------0----0----------0---------0--------0--0--------|little higher and slower
-----7--------7------0--------0------0---------0--------0----0--------|but still the same and the
-------------------------------------------------------------1--------|open notes varied..just
--0---------------3------------------------------------------0--------|listen to it if you have
---------------------------------3---------5--------0--------1--------|to be exact.

(Varied open note picking example)
--------0----------0------0--------0-----0--------|
------0---0----------0------0--------0-----0------|
----7-------7-----------------0-------------------|
--------------------------------------------------|
-0--------------3---------------------------------|
------------------------3--------5-----0----------|

Verse..I waited to say...
---------------------------------------------------------------------|After the slide he sometimes
------------------------0---------0----------------------0-----------|picks back up and open.
-----0-------0---------0---------0----------0--0------2--------------|
-------0--------0-------------------------0----1---------------------|
-----------3-----------------------------------0---------------------|
--5----------------3---------5--------0--------1-/3------------------|

Pre-Chorus..Today....
-------8--------7---------5--------------------------------------------|
---------0--------0---------0------------------------------------------|
-----------0------------------0----------------------------------------|
-----------------------------------------------------------------------|
---------------------5-0-----------------------------------------------|
--5-----------5-------------------0---0-0-3----------------------------|

Here are the chord shapes for the chorus("and I feel like I'm living ")
---0-----0----0------     ---------------------|
---0-----0----0------     ---------------------|
---0-----0----0------     ------0-0----0-0---0-|
---12----15---x------     ---7-------7-----7---|
---12----15---10-----     10-------------------|
---10----13---8------     8--------------------|

("Yes I will Find...")
------------0----------------0----------------0----------------0---------|
--------------0----------------0----------------0----------------0-------|
----------------0----------------0----------------0----------------0-----|
--------12----------------12---------------15--------------15------------|
-----12----------------12---------------15--------------15---------------|
--10----------------10---------------13--------------13------------------|

---0--0--0------0--0--0---0-----(7)------|
---0--0--0------0--0--0---0-----(7)------| The Pattern may be off by one but
---0--0--0------0--0--0---0-----(7)------| don't think so but if is you should
---X--X--0------X--X--0---X-----(7)------| have no trouble getting it.
---10-10-0------10-10-0---10----(7)------|
---8--8--0------8--8--0---8-----(7)------|

"Yes I fill find..."  bridge intro
---0----0------0--0----0-------0----0--------0----0--------0---0--------0---0-------|
-----0----0--------0----0-------0----0--------0----0--------0----0-------0----0-----|
------------0-------------0------------0-------------0--------------0-----------0---|
------------------------------------------------------------------------------------|
-7------------7--------------5------------5-------------3------------3--------------|
-5------------5--------------3------------3-------------1------------1--------------|

"Get up and open your eyes.."
-----------------0--------------  Then the harmonics part is -(12)---(7)----|
---0-------0-------0----0-------                             -(12)---(7)----|
-----0-------0-------0----0-----                             -(12)---(7)----|Repeat X1
--------------------------------                             -(12)---(7)----|
-3------5------7----------------                             -(12)---(7)----|
-1------3------5----------------                             -(12)---(7)----|
Добавлено: 24.09.2013
Другие материалы по этой песне:
  • Аккорды и текст

Страница создана 24.09.2013
http://primanota.ru/days-of-the-new/dirty-road-live-chords.htm
Привет, Гость.
Предлагаем пройти революционный курс по гитаре.
Подарок от PrimaNota.Ru, забирай!