PrimaNota.ru - самый крупный в мире бесплатный архив песенных текстов, аккордов, табулатур и нот


Days Of The New - Dirty Road - текст песни, таба, видео

Регистрация Запомнить меня
Войти через:  Facebook Google Twitter Vk Yandex Mail.ru

Days Of The New - Dirty Road - текст песни, таба, видео

Печатать
Просмотров: 153
Days of the New - Dirty Road
~~~~~~~~~~~~~~~~~~~~~~~~~~~~~~
(taken from 'the red album')

Transcribed by Ron Aharonov (ronaha@yahoo.com)




Tune your guitars to: (low to high: C# F# C# F# A C#)

Intro: two acoustic guitars are playing simultaneously the following:
[play this part twice]

C#|-------------------------------0-----------------|
A |---7.----5.----5.----4.----2.--0---------------0-|
F#|---7.----5.----5.----3.----2.--0---------0---2---|
C#|-------------------------------------------------|
F#|-------3-----------0-----------------------------|
C#|/5-----------5-----------3------------(1)-/3-----|
|
|
C#|-----0-----0-----0-----0-----0-------------------|
A |---0-----0-----0-----0-----0---------------------|
F#|-7-----5-----5-----3-----2-----0-----------------|
C#|-------------------------------------------------|
F#|-0-----3-----------0-----------------------------|
C#|-------------3-----------3-----------------------|


First verse, Part I (two guitars arranged for one):

C#|-------------------------------------------------|
A |---------------------------------------0---0---0-|
F#|---0-------0---0-------0---0-------------0---0---|
C#|-----0---0-------0---0-------0-------------------|
F#|-------3-----------------------------------------|
C#|-5-----------3-----5-----3-----1-----------------|
I've waited...			..you

H* H* H*
C#|-------------------------------------12----------|
A |----------------------------------------12-------|
F#|---0-----0-----0-------0---0---------------12----|
C#|-----0-----0-----0---0-------0-------------------|
F#|-------3-----------------------------------------|
C#|-5-----------3-----5-----3-----1-----------------|
Your limits...  		..you


First verse, Part II (like the intro):
[play this part twice]

C#|-------------------------------0-----------------|
A |---7-----5-----5-----4-----2---0---------------0-|
F#|---7-----5-----5-----3-----2---0---------0---2---|
C#|-------------------------------------------------|
F#|-------3-----------0-----------------------------|
C#|/5-----------5-----------3------------(1)-/3-----|
|
|
C#|-----0-----0-----0-----0-----0-------------------|
A |---0-----0-----0-----0-----0---------------------|
F#|-7-----5-----5-----3-----2-----0-----------------|
C#|-------------------------------------------------|
F#|-0-----3-----------0-----------------------------|
C#|-------------3-----------3-----------------------|
Give it some time...



Pre-chorus (play 4 tims):

C#|----5----7------5--------|
A |-----0----0------0-------|
F#|---0-------0---0---------|
C#|-------------------------|
F#|-0-----0-----0-----------|
C#|-------------------0---3-|
|today...
|
C#|-------------------------|
A |-------------------------|
F#|-------------------------|
C#|-------------------------|
F#|-7-----7---5-7----\2--55-|
C#|-5-----5---3-5----\0--33-|



Chorus:

C#|-0-000-0-000-0-000-0-000-0-000-0-000-0---0-00-0--|
A |-0-000-0-000-0-000-0-000-0-000-0-000-0---0-00-0--|
F#|-0-000-0-000-7-777-7-777-2-222-2-222-2p0-2-02-0--|  {play 4 times}
C#|-5-555-5-555-8-888-8-888-3-333-3-333-3---3-33-3--|
F#|-5-555-5-555-8-888-8-888-3-333-3-333-3---3-32-3--|
C#|(5)---------(8)---------(3)----------------------|
I feel like...



C#|-0-000-0-000-0-000-0-000-0-000-0-000-0-000-0-000-|
A |-0-000-0-000-0-000-0-000-0-000-0-000-0-000-0-000-|
F#|-0-000-0-000-0-000-0-000-7-777-7-777-7-777-7-777-|
C#|-5-555-5-555-5-555-5-555-8-888-8-888-8-888-8-888-|
F#|-5-555-5-555-5-555-5-555-8-888-8-888-8-888-8-888-|
C#|(5)---------------------(8)----------------------|
...find		 yes i will find....


H* (harmony)
C#|-0-0-0-0-0-0-0-----7----|
A |-0-0-0-0-0-0-0-----7----|
F#|-0-0-0-0-0-0-0-----7----|
C#|-3-3-0-3-3-0-3-----7----|
F#|-3-3-0-3-3-0-3-----7----|
C#|-3-3-0-3-3-0-3-----7----|



Second verse + chorus: same as the first verse+chorus


After the second chorus play this:

C#|-------------------------------------------------|
A |-------0-----------0-----------0-----------0-----|
F#|----0------0----0------0----2------2----2------2-|
C#|---0-0---0-----0-0---0-------0---0-----0-0---0---|
F#|-0-----------0-----------------------------------|
C#|-------------------------3-----------3-----------|



C#|-------------------------------------------------|
A |-------2-----------2-----------2-----------------|
F#|----0------0----0------0----0----0---------------|
C#|-----3---3-----3-3---3-----3-3-----3-1-1---3-3---|
F#|-------------------------------------0-0---x-x---|
C#|-1-----------1-----------1-----------1-1---3-3---|




C#|-0-000-0-000-0-000-0-000-0-000-0-000-0-000-0-000-|
A |-0-000-0-000-0-000-0-000-0-000-0-000-0-000-0-000-|
F#|-0-000-0-000-0-000-0-000-0-000-0-000-0-000-0-000-|  {play it twice}
C#|-0-000-0-000-0-000-0-000-1-111-1-111-3-333-3-333-|
F#|-0-000-0-000-0-000-0-000-x-xxx-x-xxx-x-xxx-x-xxx-|
C#|-------------------------1-111-1-111-3-333-3-333-|



C#|-------------------------------------------0-----|
A |-------------------0--------------------0----0---|
F#|----0-----0----2-2-----2----0-----0----0-0-----0-|
C#|---3-3---3-3----0----0-----3-3---3-3-------------|
F#|------------0------------------------0-----------|
C#|-1-----3-----------------1-----3-----------------|
Get up...

H*	  H*	H*    H*
C#|-------------------------------0-----------------5-----7-----5-----7--|
A |-------------------0-------------0---------------5-----7-----5-----7--|
F#|----0-----0-----0----0-------0-----0-------------5-----7-----5-----7--|
C#|---3-3---3-3---0-0-----0---3---------------------5-----7-----5-----7--|
F#|------------0------------------------------------5-----7-----5-----7--|
C#|-1-----3-----------------1-----------3-----------5-----7-----5-----7--|
..I know u will find     a  way...


Pre-chorus (play 4 tims):

C#|----5----7------5--------|
A |-----0----0------0-------|
F#|---0-------0---0---------|
C#|-------------------------|
F#|-0-----0-----0-----------|
C#|-------------------0---3-|
|
|
C#|-------------------------|
A |-------------------------|
F#|-------------------------|
C#|-------------------------|
F#|-7-----7---5-7----\2--55-|
C#|-5-----5---3-5----\0--33-|



Chorus:

C#|-0-000-0-000-0-000-0-000-0-000-0-000-0---0-00-0--|
A |-0-000-0-000-0-000-0-000-0-000-0-000-0---0-00-0--|
F#|-0-000-0-000-7-777-7-777-2-222-2-222-2p0-2-02-0--|  {play it 4 times}
C#|-5-555-5-555-8-888-8-888-3-333-3-333-3---3-33-3--|
F#|-5-555-5-555-8-888-8-888-3-333-3-333-3---3-32-3--|
C#|(5)---------(8)---------(3)----------------------|
I feel like...



C#|-0-000-0-000-0-000-0-000-0-000-0-000-0-000-0-000-|
A |-0-000-0-000-0-000-0-000-0-000-0-000-0-000-0-000-|
F#|-0-000-0-000-0-000-0-000-7-777-7-777-7-777-7-777-|
C#|-5-555-5-555-5-555-5-555-8-888-8-888-8-888-8-888-|
F#|-5-555-5-555-5-555-5-555-8-888-8-888-8-888-8-888-|
C#|(5)---------------------(8)----------------------|
I will find...


C#|-0-0-0-0-0-0-0-0-0-0-0-0-0-0-0-0-0-0-0-0-0-0-0-0-|
A |-0-0-0-0-0-0-0-0-0-0-0-0-0-0-0-0-0-0-0-0-0-0-0-0-|
F#|-0-0-0-0-0-0-0-0-0-0-0-0-0-0-0-0-0-0-0-0-0-0-0-0-|
C#|-3-3-0-3-3-0-3-3-0-3-3-0-3-3-0-3-3-0-3-3-0-3-3-0-|
F#|-3-3-0-3-3-0-3-3-0-3-3-0-3-3-0-3-3-0-3-3-0-3-3-0-|
C#|-3-3-0-3-3-0-3-3-0-3-3-0-3-3-0-3-3-0-3-3-0-3-3-0-|
Oh yeah...			    same damn dirty road...


C#|-0-000-0-000-0-000-0-000-0-000-0-000-0---0-00-0--|
A |-0-000-0-000-0-000-0-000-0-000-0-000-0---0-00-0--|
F#|-0-000-0-000-7-777-7-777-2-222-2-222-2p0-2-02-0--|
C#|-5-555-5-555-8-888-8-888-3-333-3-333-3---3-33-3--|
F#|-5-555-5-555-8-888-8-888-3-333-3-333-3---3-32-3--|
C#|(5)---------(8)---------(3)----------------------|
I feel like...



C#|-0-000-0-000-0--0--0--0--0-000-0-000-0-000-0-000-|
A |-0-000-0-000-0--0--0--0--0-000-0-000-0-000-0-000-|
F#|-7-777-7-777-10-10-10-10-0-000-2-222-0-000-0-000-|
C#|-8-888-8-888-10-10-10-10-0-000-0-000-0-000-0-000-|
F#|-8-888-8-888-10-10-10-10-0-000-0-000-0-000-0-000-|
C#|-------------------------------------------------|
And I don't know...



C#|-0-000-0-000-0-000-0-000-0-000-0-000-0---0-00-0--|
A |-0-000-0-000-0-000-0-000-0-000-0-000-0---0-00-0--|
F#|-0-000-0-000-7-777-7-777-2-222-2-222-2p0-2-02-0--|
C#|-5-555-5-555-8-888-8-888-3-333-3-333-3---3-33-3--|
F#|-5-555-5-555-8-888-8-888-3-333-3-333-3---3-32-3--|
C#|(5)---------(8)---------(3)----------------------|
Sometimes   I feel like...



C#|-0-000-0-000-0--0--0--0------0-----0-------------|
A |-0-000-0-000-0--0--0--0----0-------------0-----0-|
F#|-7-777-7-777-10-10-10-10---------0-----0-----0---|
C#|-8-888-8-888-10-10-10-10-8-----7-----5-----3-----|
F#|-8-888-8-888-10-10-10-10-0-----------------------|
C#|-------------------------------------------------|
Is the road...


H*---
C#|-------------0-------------------7---------------|
A |-------------0---------------------7-------------|
F#|-------------0-----------------------7-----------|
C#|-----5-------------------8-----------------------|
F#|/5-----------------------8-----------------------|
C#|-------------------------------------------------|
...find...	 yes i will find...


H*
C#|-0-0-0-0-0-0-0-----7---------------7-7-7h8p7p5h7-|
A |-0-0-0-0-0-0-0-----7-----------------------------|
F#|-0-0-0-0-0-0-0-----7-----------------------------|
C#|-3-3-0-3-3-0-3-----7-----------------------------|
F#|-3-3-0-3-3-0-3-----7-----------------------------|
C#|-3-3-0-3-3-0-3-----7-----0-----------------------|
A way...


For any comments on this TAB please write to me: ronaha@yahoo.com
Добавлено: 30.04.2012
Другие материалы по этой песне:
  • Аккорды и текст

Страница создана 23.03.2012
http://primanota.ru/days-of-the-new/dirty-road-chords.htm
Привет, Гость.
Предлагаем пройти революционный курс по гитаре.
Подарок от PrimaNota.Ru, забирай!