PrimaNota.ru - самый крупный в мире бесплатный архив песенных текстов, аккордов, табулатур и нот


Daylight - Youth No More - текст песни, таба, видео

Регистрация Запомнить меня
Войти через:  Facebook Google Twitter Vk Yandex Mail.ru

Daylight - Youth No More - текст песни, таба, видео

Печатать
Просмотров: 155
Tuning: Standard

Great song by Daylight, think I've finally figured out the tab for some of it (Not 
all of the song) but not sure tell me what you think. 
I think it's pretty accurate.

Intro:

|------------------------------------------------------|
|---4------2-------------2-----------------------------|
|---3------3------3------3------3------4-------1-------|
|---1------1------4------1------4------4-------1-------|
|---1--X5--1--X2--1--X2--1--X2--1--X4--2--X13--1--X2---| X2
|------------------------------------------------------|

Main Riff:

|---------14----11---------14-------11-16-11-------14--|
|---12-14----14------12-14----12-14----------14-12-----|
|------------------------------------------------------|
|------------------------------------------------------|
|------------------------------------------------------|
|------------------------------------------------------|

|---------14----11---------14-------11-16-11-----------|
|---12-14----14------12-14----12-14----------14-12-12~-|
|------------------------------------------------------|
|------------------------------------------------------|
|------------------------------------------------------|
|------------------------------------------------------|

Verse:

|------------------------------------------------------|
|------------------------------------------------------|
|------------------------------------------------------|
|---2-----6----9---------------------------------------|
|---2-X11-6-X5-9-X6------------------------------------| X4
|---0-----4----7---------------------------------------|

Bridge:

|------------------------------------------------------|
|------------------------------------------------------|
|------------------------------------------------------|
|---2-2x-2-2x-6-6x-9-9x--------------------------------|
|---2-2x-2-2x-6-6x-9-9x--------------------------------| X4
|---0-0x-0-2x-4-4x-7-7x--------------------------------| 

(Guitar 2 over the top)

|------------------------------------------------------|
|---11-12----------------------------------------------|
|---------11-8---6/8-----------------------------------|
|--------------------9-8-------------------------------|
|------------------------------------------------------| X4
|------------------------------------------------------|

|------------------------------------------------------|
|------------------------------------------------------|
|------------------------------------------------------|
|---2~-----4~------2~----------------------------------|
|---2~--------2----2~-----2~-1~------------------------|
|---0~----------2--0~----------------------------------|

That's all I have so far, it's pretty much all there but there's still a lot to go. 
Anything to add let me know.
Добавлено: 03.06.2013
Вам также может быть интересно:
Другие материалы по этой песне:

Страница создана 03.06.2013
http://primanota.ru/daylight/youth-no-more-chords.htm
Привет, Гость.
Предлагаем пройти революционный курс по гитаре.
Подарок от PrimaNota.Ru, забирай!