PrimaNota.ru - самый крупный в мире бесплатный архив песенных текстов, аккордов, табулатур и нот


Daylight - Sponge - таба, видео

Регистрация Запомнить меня
Войти через:  Facebook Google Twitter Vk Yandex Mail.ru

Daylight - Sponge - таба, видео

Печатать
Просмотров: 83
Tuning: Db, Ab, Db, Gb, Bb, Ab




Intro A
Guitar one
1|-------------|--------------------|
2|-------------|----------3-3-------|
3|-------------|----------2-2-------| (Play this four times)
4|----4^-4-2-0-|----------0-0-------|
5|-2-----------|5--2-2-2------------|
6|-2-----------|5--2-2-2-------0----|

Intro A
Guitar two
B|-8~---|

Intro B                  1   2
Guitar one              |-------| 
1|------------|------------|-----|------------|------------|------------|
2|.-----------|-----------.|-----|------------|------------|------------|
3|------------|------------|-----|------------|------------|------------|
4|------------|------------|-----|------------|------------|------------|
5|.2--2--2--2-|-5--5--5--5.|-000-|-2--2--2--2-|-5--5--5--5-|-7--7--7--7-|
6|-2--2--2--2-|-5--5--5--5-|-000-|-2--2--2--2-|-5--5--5--5-|-7--7--7--7-|

1|------------|
2|------------|
3|------------|
4|-------7--7-|
5|-5--5--5--5-|
6|-5--5--5--5-|

Intro B
Guitar two
1|------|-------7/10/7-|-------|--------------|------|-------7/10/7-|
2|-8~--7|-8--7---------|-8~--7-|-8--7---------|-8~--7|-8--7---------|
3|------|--------------|-------|--------7/4/7-|------|--------------|
4|------|--------------|-------|--------------|------|--------------|
5|------|--------------|-------|--------------|------|--------------|
6|------|--------------|-------|--------------|------|--------------|

1|------------|-------------------|
2|-8-----8----|-7--7--7--7/8/7--0-|
3|------------|-7--7--7--7--------|
4|--9-----9---|-------------------|
5|------------|-------------------|
6|------------|-------------------|

Verse one
Guitar one & two
1|-0-| When you strum this chord, start with your pick on
2|-0-| high E string, and strum up, toward your face.
3|-0-|
4|-2-| Strum this chord once every four measures until the 
5|-2-| verse ends.
6|-2-|

Pre-chorus
Guitar one & two
(The pre-chorus for guitar one & two is the same thing as intro A for
 guitar one.)

Chorus
Guitar one & two
(The chorus is the same as intro B)

Bridge
(Guitar one & two)
1|---------|---------|
2|---------|----3--3-|
3|---------|----2--2-|
4|---------|----0--0-| Play this two times
5|-2--2--2-|-2-------|
6|-2--2--2-|-2-------|

Verse two
Bass guitar
(I'm putting this in because there's no guitar in the first eight
 measures of this verse, so I figured "why not?")
E|-2-2-2-2--5-5-5-5--2-2-2-2--5-5-5-000--2-2-2-2--5-5-5-5--7-7-7-7-|

The other two guitars come in on this note
A|-000-------------------------|
E|-000-------------------------|

The rest of the verse is the Guitar One part from Intro B.

Bridge two(after the second chorus)
Guitar one & two
1|---------|---------|---------|--------|---------|---------|------------|
2|---------|----3--3-|---------|--------|---------|----3--3-|------------|
3|---------|----2--2-|---------|--------|---------|----2--2-|------------|
4|---------|----0--0-|---------|--------|---------|----0--0-|------------|
5|-2--2--2-|-2-------|-2--2--2-|-2--5-5-|-2--2--2-|-2-------|-7--7--5--5-|
6|-2--2--2-|-2-------|-2--2--2-|-2--5-5-|-2--2--2-|-2-------|-7--7--5--5-|

Interlude
Guitar one & two
1|-0-|
2|-0-|
3|-0-| Strum this every two measures until the Interlude is over
4|-2-|
5|-2-|
6|-2-|

Outro A
Guitar one
1|------------|-----------------|
2|------------|-----------3-3-3-|
3|------------|-----------2-2-2-|
4|------------|-----------0-0-0-| Play this three times
5|-2--2--2--2-|-5--0-0-0--------|
6|-2--2--2--2-|-5--0-0-0--------|

1|--------------|--------------|
2|--------------|--------------|
3|--------------|--------------|
4|--------------|---------7--7-|
5|-7--7--7-7--7-|-5--5--5-5--5-|
6|-7--7--7-7--7-|-5--5--5-5--5-|

Outro B
Guitar two
1|------------------------------------------------------------|
2|-8888888--77777777--8888888--77777777--8888888--77777/8/7-0-|
3|-7777777--77777777--7777777--77777777--7777777--77777-------|
4|------------------------------------------------------------|
5|------------------------------------------------------------|
6|------------------------------------------------------------|

Ending chord
Guitar one & two
1|-0-|
2|-0-|
3|-0-|
4|-2-|
5|-2-|
6|-2-|

(Lyrics)
I left my head at home, buried in the backyard with the dog
I've thought of leaving more times than once
I'll leave you alone, I tried so hard to be the rock
But all I felt like was a wet sponge

I want to run
I just can't
The things it takes to be man

I want to run, I'm not proud of the things, I have done
Don't let my living bring you, down
You'll never know, how much it hurts to nod, when I'm the son
I'll never stand and watch you, drown

I'm under a spell, this isn't what I want for us
We've had it all together this long
My spine's deep as well, my heart is bigger than you know
This memory is just a sad song

I want to run
I just can't
The things it takes to be a man

I want to run, I'm not proud of the things, I have done
Don't let my living bring you, down
You'll never know, how much it hurts to nod, when I'm the son
I cannot stay and watch you drown

Tab written by Joobies567

Thank you all for reading my tab! This is one of my first tabs,
so it may not be perfect. The only other tab of this song that I 
could find on here was a pro tab, and if you guys are anything like 
me, you don't really care for those! So, yeah, I might do 
"Two of a kind" by Daylight pretty soon also, since the only tab
I could find of that song on the whole internet is just the acoustic part
at the end(but it is pretty cool). I also might do "Covet" by Basement.
Okay, I'll quit talking now, thanks again everybody, bye!
Добавлено: 22.11.2013
Другие материалы по этой песне:

Страница создана 23.08.2013
http://primanota.ru/daylight/sponge-chords.htm
Привет, Гость.
Предлагаем пройти революционный курс по гитаре.
Подарок от PrimaNota.Ru, забирай!