PrimaNota.ru - самый крупный в мире бесплатный архив песенных текстов, аккордов, табулатур и нот


Daylight - On The Way To Dads - таба, видео

Регистрация Запомнить меня
Войти через:  Facebook Google Twitter Vk Yandex Mail.ru

Daylight - On The Way To Dads - таба, видео

Печатать
Просмотров: 111
------------------------------------|
------------------------------------|
--4---------------------------------|
--4---7---7---7---5-5-5-------------|
--2---5---7---5---3-3-3-------------|
------5---5---5---3-3-3-------------| x2

------------------------------------|
------------------------------------|
--4-4-444---------------------------|
--4-4-4447-77-77777-7-7777-77-7777--|
--2-2-2225-55-55555-5-5555-55-5555--|
---------5-55-55553-3-3333-33-3333--| x3

------------------------------------|
------------------------------------|
--4-4-444---------------------------|
--4-4-4447-777777---7---------------|
--2-2-2225-555555---5---------------|
---------5-555555---3---------------|
             pm.   
Добавлено: 28.06.2013
Другие материалы по этой песне:
  • Аккорды и текст

Страница создана 28.06.2013
http://primanota.ru/daylight/on-the-way-to-dads-chords.htm
Привет, Гость.
Предлагаем пройти революционный курс по гитаре.
Подарок от PrimaNota.Ru, забирай!