PrimaNota.ru - самый крупный в мире бесплатный архив песенных текстов, аккордов, табулатур и нот


Dayglo Abortions - Vince Neil - таба, видео

Регистрация Запомнить меня
Войти через:  Facebook Google Twitter Vk Yandex Mail.ru

Dayglo Abortions - Vince Neil - таба, видео

Печатать
Просмотров: 122
Уроки эстрадного вокала в Санкт-Петербурге
-------------------------------------------------------------------------------
Vince Neil - Dayglo Abortions
Holy Shi'ite
-------------------------------------------------------------------------------
Tabbed by: axeslash
Email: holmzito@yahoo.com

Tuning: Standard

e|---------------------------------------------------|
B|---------------------------------------------------|
G|---------------------------------------------------|
D|-----------------------------7-7-7-7-7-7-7-7-------|
A|-7--9--10--10------5--5------5-5-5-5-5-5-5-5-------|
E|-5--7---8---8------3--5----------------------------|

e|-----------------------------------------------------------------------------------------|
B|-----------------------------------------------------------------------------------------|
G|-----------------------------------------------------------------------------------------|
D|----------------------------------7-7-7-7-7-7-7-7----------------------------------------|
A|-7--9--10--10-10------5--5-5------5-5-5-5-5-5-5-5-------7--9--10--10-10------5--5-5------|
E|-5--7---8---8--8------3--3-5----------------------------5--7---8---8--8------3--3-5------|

e|----------------------------------------------------|
B|----------------------------------------------------|
G|----------------------------------------------------|
D|-7--7--7--7--7--7-----------------------------------|
A|-5--5--5--5--5--5--7--9--10--10-10------5--5-5------|
E|-------------------5--7---8---8--8------3--3-5------| x4

e|-----------------------------------------------------------------------------------------------|
B|-----------------------------------------------------------------------------------------------|
G|-----------------------------------------------------------------------------------------------|
D|-7--7----7--7--7-7----7--5--5----5--5--5-5----5--------------------------7--7----7--7--7-7----7|
A|-5--5----5--5--5-5----5--3--3----3--3--3-3----3--5--5----5--5--5-5----5--5--5----5--5--5-5----5|
E|-------------------------------------------------3--3----3--3--3-3----3------------------------| 
x2

e|----------------------------------------------|
B|----------------------------------------------|
G|----------------------------------------------|
D|-7--7----7--7--7-7--7--9----9----5--5-5----5--|
A|-5--5----5--5--5-5--5--7----7----3--3-3----3--|
E|----------------------------------------------|

e|-----------------------------------------------|
B|-----------------------------------------------|
G|-----------------------------------------------|
D|-7--7-7-7--7--7--7-7----7--9----9----5--5-5-5--|
A|-5--5-5-5--5--5--5-5----5--7----7----3--3-3-3--|
E|-----------------------------------------------|

e|-----------------------------------------------|
B|-----------------------------------------------|
G|-----------------------------------------------|
D|---------------------------9----9----5--5-5----|
A|-5--5-5----5--5--5-5----5--7----7----3--3-3----|
E|-3--3-3----3--3--3-3----3----------------------| x2

e|--------------------------------------------------------|
B|--------------------------------------------------------|
G|--------------------------------------------------------|
D|-7-7-7-7-7-7-7-7----------------------------------------|
A|-5-5-5-5-5-5-5-5-------7--9--10--10-10------5--5-5------|
E|-----------------------5--7---8---8--8------3--3-5------| x2

e|----------------------------------------------------|
B|----------------------------------------------------|
G|----------------------------------------------------|
D|-7--7--7--7--7--7-----------------------------------|
A|-5--5--5--5--5--5--7--9--10--10-10------5--5-5------|
E|-------------------5--7---8---8--8------3--3-5------| x4

e|-----------------------------------------------------------------------------------------------|
B|-----------------------------------------------------------------------------------------------|
G|-----------------------------------------------------------------------------------------------|
D|-7--7----7--7--7-7----7--5--5----5--5--5-5----5--------------------------7--7----7--7--7-7----7|
A|-5--5----5--5--5-5----5--3--3----3--3--3-3----3--5--5----5--5--5-5----5--5--5----5--5--5-5----5|
E|-------------------------------------------------3--3----3--3--3-3----3------------------------|

e|-------------------------------------------------------------------------|
B|-------------------------------------------------------------------------|
G|-------------------------------------------------------------------------|
D|-7--7----7--7--7-7----7--5--5----5--5--5-5----5--------------------------|
A|-5--5----5--5--5-5----5--3--3----3--3--3-3----3--5--5----5--5--5-5----5--|
E|-------------------------------------------------3--3----3--3--3-3----3--|

e|--------------------------------------------------------|
B|--------------------------------------------------------|
G|--------------------------------------------------------|
D|-7-7-7-7-7-7-7-7----------------------------------------|
A|-5-5-5-5-5-5-5-5-------7--9--10--10-10------5--5-5------|
E|-----------------------5--7---8---8--8------3--3-5------| x2

e|------------------|
B|------------------|
G|------------------|
D|-7-7-7-7-7-7-7-7--|
A|-5-5-5-5-5-5-5-5--|
E|------------------|


| /  slide up
| \  slide down
| h  hammer-on
| p  pull-off
| ~  vibrato
| +  harmonic
| x  Mute note
===============================================================================
Добавлено: 03.04.2012
Другие материалы по этой песне:
  • Аккорды и текст

Страница создана 03.04.2012
http://primanota.ru/dayglo-abortions/vince-neil-chords.htm
Привет, Гость.
Предлагаем пройти революционный курс по гитаре.
Подарок от PrimaNota.Ru, забирай!